A következő címkéjű bejegyzések mutatása: Republic ha itt lennél velem. Összes bejegyzés megjelenítése
A következő címkéjű bejegyzések mutatása: Republic ha itt lennél velem. Összes bejegyzés megjelenítése

20121115

REPUBLIC HA ITT LENNÉL VELEM TAB (SZÓLÓ)



e---------------------------------------------10.-------------------
H---------------------10-12(13)---12.--10.--------12.---12----------
G-7.--7~--\-----/11.------------------------11--------11---12\11-10.
D-------------------------------------------------------------------
A-------------------------------------------------------------------
E-------------------------------------------------------------------


e-------------------------------------------------------------------
H-------------------------------------------------------------------
G-9p7\6.-7p6----------------7---------------------------------------
D------------7-----7.---------9.---9-7/9-7~-------------------------
A--------------9.------10\9-----------------9-7h8p7\5-7-7(8)(7)p5.--
E-------------------------------------------------------------------


e------------------------------7.-----------------------------------
H---------7-8p7-10.---(12)(10)------10------------------------------
G-9(11)-------------------------------------------------------------
D-------------------------------------------------------------------
A-------------------------------------------------------------------
E-------------------------------------------------------------------


e-10.--10p9------7.------------------------------10-----------------
H-----------10.-----10p7-----------------------10---12.--10~--------
G------------------------10p9p7---9---7h9h10/11---------------------
D-------------------------------9---9-------------------------------
A-------------------------------------------------------------------
E-------------------------------------------------------------------


e-------------------------------------------------------------------
H-8-10-10------10------10-------------------------------------------
G------9(11).--9(11).--9(11)-9-7.-----------------------------------
D-----------------------------------9.-7.---------------------------
A-----------------------------------------9\7--5-7(8).-7.-5---5~----
E-----------------------------------------------------------7----7\-


e----------------17.-------------------14-17.-16.-15p14--14-------14
H----15.-17(19).----(19)(17)p15---15-17----------------17-------15--
G-/16---------------------------16-------------------------14-16----
D-------------------------------------------------------------------
A-------------------------------------------------------------------
E-------------------------------------------------------------------


e--------14---------------------------------------------------------
H------15-----------------------------------------------------------
G-14-16-------------------------------------------------------------
D-------------------------------------------------------------------
A-------------------------------------------------------------------
E-------------------------------------------------------------------