A következő címkéjű bejegyzések mutatása: akkord. Összes bejegyzés megjelenítése
A következő címkéjű bejegyzések mutatása: akkord. Összes bejegyzés megjelenítése

20160212

HOLDVIOLA LÁTOD ÉDESANYÁM TAB

Holdviola - Látod Édesanyám egy szál gitár kíséretében.



HOLDVIOLA LÁTOD ÉDESANYÁM TAB


Intro

e-----------------------------------------------------------------------
B---------3-----------0---------3p2-----------0-------------------------
G-------4---4-------4---4-------------4-----4---4-----------------------
D-----4---------0h2-------2---4-----4-----2-------0---------------------
A---2---------4-------------0-----------0-------------------------------
E-----------------------------------------------------------------------


e-----------------------------------------------------------------------
B-----------------------------------------------------------------------
G---2-----0-----------0-----4---------4-3-------------------------------
D-------4---4---2---4---4-0-----4---4-----------------------------------
A-----2-------2---2-----------------------------------------------------
E---3-----------0-----------2-----2-------------------------------------


Látod Édesanyám ...

e-----------------------------------------------------------------------
B---------3-----------0---------3p2-----------0-------------------------
G-------4---4-------4---4-------------4-----4---4-----------------------
D-----4---------0h2-------2---4-----4-----2-------0---------------------
A---2---------4-------------0-----------0-------------------------------
E-----------------------------------------------------------------------


20150721

ÉN MEG AZ ÉNEK ENGEM NEM LEHET ELFELEJTENI TAB (SZENES - NÁDAS)

Engem nem lehet elfelejteni ...  
Bérczesi Róbert egy szál gitárral és egy régi Szenes-Nádas dal.


BÉRCZESI RÓBERT ENGEM NEM LEHET ELFELEJTENI TAB


Akkordok

    G      H7     Em     G7     C      C7     E7     A7     D7     G7'

e---3------2------0------1------0------0------0------0------2-----------
B---0------4------0------0------1------1------3------2------1-----------
G---0------2------0------0------0------3------1------0------2-----------
D---0------4------2------0------2------2------2------2------0------3----
A---2------2------2------2------3------3------2------0-------------2----
E---3-------------0------3--------------------0--------------------3----


    Am    Fmaj7    D#    G(add6)

e---0------0-------3------0---------------------------------------------
B---1------1-------4------3---------------------------------------------
G---2------2-------3------0---------------------------------------------
D---2------3-------5------0---------------------------------------------
A---0------3-------6------2---------------------------------------------
E----------x--------------3---------------------------------------------

       G             H7
Engem nem lehet elfelejteni,

       Em             G7
Értem könnyeket illik ejteni,

      C          C7
Lehet így, lehet úgy,

       G             E7
De ha nincs is közös út,

   A7                    D7
Az ábrándjaidban ott leszek ugyanúgy.


ÉN MEG AZ ÉNEK VÁRJ MÍG FELKEL MAJD A NAP TAB (LERCH ISTVÁN)

Várj míg felkel majd a nap 30 másodpercben, Bérczesi Róbert előadásában.



ÉN MEG AZ ÉNEK VÁRJ MÍG FELKEL MAJD A NAP TAB


    Em              D       C       G       G       A
e---3---------------2-------0-------------------------------------------
B-----------0-------------------------------0-------2-------------------
G-------0-------0-------2-------0---0-----------0-------2---------------
D-------------------0-------------------0-------------------------------
A---------------------------3---------------2-------0-------------------
E---0-------------------------------3-----------------------------------

    D
e---------------------------3p2p0---2-----------------------------------
B---3---------------3-------------------3-------------------------------
G-------2-------2-------2-------------------2---------------------------
D---0-------0-----------------------------------0-----------------------
A-----------------------------------------------------------------------
E-----------------------------------------------------------------------

    Em                      D       C       G       G       A
e---3---------------3-------2-------0-----------------------------------
B-----------0---------------------------------------0-------2-----------
G-------0-------0-------0-------2-------0---0-----------0-------2-------
D---------------------------0-------------------0-----------------------
A-----------------------------------3---------------2-------0-----------
E---0---------------------------------------3---------------------------



20140811

HONEYBEAST A LEGNAGYOBB HŐS TAB



HONEYBEAST A LEGNAGYOBB HŐS TAB


Akkordok

  Bbm    F/A   C#maj7  F#maj7    G#6      G#     C'fsz'  F7    G'sz'
e--1------1-----(4)----(1)--------4-------4--------------1--------------
H--2------1------6------2---------6-------4-------4------1------2-------
G--3------2------5------3---------5-------5-------3------2------3-------
D--3------3------6------3---------6-------6-------4------1------2-------
A--1------0------4------x---------x-------6-------3------3------x-------
E-----------------------2---------4-------4--------------1------3-------

  F#m     C#m    E         G#sus4  G#?
e--2------4------0-----------4------4-----------------------------------
H--2------5------0-----------4------4-----------------------------------
G--2------6------1-----------6------7-----------------------------------
D--4------6------2-----------x------x-----------------------------------
A--4------4------2-----------6------6-----------------------------------
E--2-------------0-----------4------4-----------------------------------



Bbm
A jó híremen nem eshet csorba,

F/A
Beállok én is a tornasorba.

C#maj7
Hiszem, hogy két paralel történet

F#maj7
A végtelenben összeérhet.

20140707

CSÍK ZENEKAR FERENCZI GYÖRGY EZ A VONAT HA ELINDULT TAB (EGER - 2009)

Csík Zenekar és Ferenczi György - Ez a vonat ha elindult ...
A tab az 1:00-nál kezdődő verse rész alapján készült, nagyjából ez a kör megy végig.


EZ A VONAT HA ELINDULT TAB


e-----------------------------------------------------------------------
B---------------------------------------6-------4-----------------------
G-----3-----3-----3-----3-----3-----3---5------4------------------------
D---3-----3-----3-----3-----5-----5-----6-----3-------------------------
A-------------------5-----6-----7-----5---------------------------------
E-3-----5-----6---------------------------4-3---------------------------


e---------------------1-------------------------------------------------
B---------------4-----1-------6-----6-----6-5----4----------------------
G-----3-----3---5-----2-------7-----5-----5-5---5-----------------------
D---5-----5-----5-------------7-----5-----4-4--4------------------------
A-3-------------------------------6---6-5-----5-------------------------
E-------6-----5---5-1---1-/-6---6---------------------------------------


e-----------------------------------------------------------------------
B---------------3-----4-----------------------4-------------------------
G-----3-----3---3-----3---5.--5---------3-----4-------------------------
D---3-----3-----5-----5---5.--4---------3-----3-------------------------
A-------------6---6-3---3---------------------4-------------------------
E-3-----1-----------------5.--4---------3-------------------------------


e-----------------------------------------------------------------------
B---------4-----6-5----4--------------------------7---------------------
G-----3---5-----5-5---5-----------3-----3-3.------7---------------------
D---5-----5-----4-4--4----------3-----3---3.------8---------------------
A-3-----------5-----5-----------------------------9---------------------
E-------5---5-----------------3-----5-----3.----------------------------



20130621

ROAD VILÁGCSAVARGÓ TAB


Tuning: DGCFAd   !!!


 "F"     "Am"    "G"             "C"    "C/H"    "E7"
d-1-------0-------3---------------0-------0-------0---------------------
A-1-------1-------3---------------1-------1-------3---------------------
F-2-------2-------0---------------0-------0-------1---------------------
C-3-------2-------0---------------2-------0-------2---------------------
G-3-------0-------2---------------3-------2-------2---------------------
D-1---------------3-------------------------------0---------------------



Intro

c / G / Am / Am /
c / G / Am / Am /


Verse 1

c / G / Am / Am /
c / G / Am / Am /
c / G / Am / Am /
c / G / Am / G / Am / Am /