A következő címkéjű bejegyzések mutatása: akkordok. Összes bejegyzés megjelenítése
A következő címkéjű bejegyzések mutatása: akkordok. Összes bejegyzés megjelenítése

20150721

ÉN MEG AZ ÉNEK ENGEM NEM LEHET ELFELEJTENI TAB (SZENES - NÁDAS)

Engem nem lehet elfelejteni ...  
Bérczesi Róbert egy szál gitárral és egy régi Szenes-Nádas dal.


BÉRCZESI RÓBERT ENGEM NEM LEHET ELFELEJTENI TAB


Akkordok

    G      H7     Em     G7     C      C7     E7     A7     D7     G7'

e---3------2------0------1------0------0------0------0------2-----------
B---0------4------0------0------1------1------3------2------1-----------
G---0------2------0------0------0------3------1------0------2-----------
D---0------4------2------0------2------2------2------2------0------3----
A---2------2------2------2------3------3------2------0-------------2----
E---3-------------0------3--------------------0--------------------3----


    Am    Fmaj7    D#    G(add6)

e---0------0-------3------0---------------------------------------------
B---1------1-------4------3---------------------------------------------
G---2------2-------3------0---------------------------------------------
D---2------3-------5------0---------------------------------------------
A---0------3-------6------2---------------------------------------------
E----------x--------------3---------------------------------------------

       G             H7
Engem nem lehet elfelejteni,

       Em             G7
Értem könnyeket illik ejteni,

      C          C7
Lehet így, lehet úgy,

       G             E7
De ha nincs is közös út,

   A7                    D7
Az ábrándjaidban ott leszek ugyanúgy.


ÉN MEG AZ ÉNEK VÁRJ MÍG FELKEL MAJD A NAP TAB (LERCH ISTVÁN)

Várj míg felkel majd a nap 30 másodpercben, Bérczesi Róbert előadásában.



ÉN MEG AZ ÉNEK VÁRJ MÍG FELKEL MAJD A NAP TAB


    Em              D       C       G       G       A
e---3---------------2-------0-------------------------------------------
B-----------0-------------------------------0-------2-------------------
G-------0-------0-------2-------0---0-----------0-------2---------------
D-------------------0-------------------0-------------------------------
A---------------------------3---------------2-------0-------------------
E---0-------------------------------3-----------------------------------

    D
e---------------------------3p2p0---2-----------------------------------
B---3---------------3-------------------3-------------------------------
G-------2-------2-------2-------------------2---------------------------
D---0-------0-----------------------------------0-----------------------
A-----------------------------------------------------------------------
E-----------------------------------------------------------------------

    Em                      D       C       G       G       A
e---3---------------3-------2-------0-----------------------------------
B-----------0---------------------------------------0-------2-----------
G-------0-------0-------0-------2-------0---0-----------0-------2-------
D---------------------------0-------------------0-----------------------
A-----------------------------------3---------------2-------0-----------
E---0---------------------------------------3---------------------------



20140811

HONEYBEAST A LEGNAGYOBB HŐS TAB



HONEYBEAST A LEGNAGYOBB HŐS TAB


Akkordok

  Bbm    F/A   C#maj7  F#maj7    G#6      G#     C'fsz'  F7    G'sz'
e--1------1-----(4)----(1)--------4-------4--------------1--------------
H--2------1------6------2---------6-------4-------4------1------2-------
G--3------2------5------3---------5-------5-------3------2------3-------
D--3------3------6------3---------6-------6-------4------1------2-------
A--1------0------4------x---------x-------6-------3------3------x-------
E-----------------------2---------4-------4--------------1------3-------

  F#m     C#m    E         G#sus4  G#?
e--2------4------0-----------4------4-----------------------------------
H--2------5------0-----------4------4-----------------------------------
G--2------6------1-----------6------7-----------------------------------
D--4------6------2-----------x------x-----------------------------------
A--4------4------2-----------6------6-----------------------------------
E--2-------------0-----------4------4-----------------------------------



Bbm
A jó híremen nem eshet csorba,

F/A
Beállok én is a tornasorba.

C#maj7
Hiszem, hogy két paralel történet

F#maj7
A végtelenben összeérhet.

20140707

CSÍK ZENEKAR FERENCZI GYÖRGY EZ A VONAT HA ELINDULT TAB (EGER - 2009)

Csík Zenekar és Ferenczi György - Ez a vonat ha elindult ...
A tab az 1:00-nál kezdődő verse rész alapján készült, nagyjából ez a kör megy végig.


EZ A VONAT HA ELINDULT TAB


e-----------------------------------------------------------------------
B---------------------------------------6-------4-----------------------
G-----3-----3-----3-----3-----3-----3---5------4------------------------
D---3-----3-----3-----3-----5-----5-----6-----3-------------------------
A-------------------5-----6-----7-----5---------------------------------
E-3-----5-----6---------------------------4-3---------------------------


e---------------------1-------------------------------------------------
B---------------4-----1-------6-----6-----6-5----4----------------------
G-----3-----3---5-----2-------7-----5-----5-5---5-----------------------
D---5-----5-----5-------------7-----5-----4-4--4------------------------
A-3-------------------------------6---6-5-----5-------------------------
E-------6-----5---5-1---1-/-6---6---------------------------------------


e-----------------------------------------------------------------------
B---------------3-----4-----------------------4-------------------------
G-----3-----3---3-----3---5.--5---------3-----4-------------------------
D---3-----3-----5-----5---5.--4---------3-----3-------------------------
A-------------6---6-3---3---------------------4-------------------------
E-3-----1-----------------5.--4---------3-------------------------------


e-----------------------------------------------------------------------
B---------4-----6-5----4--------------------------7---------------------
G-----3---5-----5-5---5-----------3-----3-3.------7---------------------
D---5-----5-----4-4--4----------3-----3---3.------8---------------------
A-3-----------5-----5-----------------------------9---------------------
E-------5---5-----------------3-----5-----3.----------------------------



20140408

MOJO WORKINGS CUP OF TEA TAB

Mojo Workings - Cup Of Tea akkordmenet


MOJO WORKINGS CUP OF TEA TAB


  E     F#7     A      G     Cadd9  C#m     B     E add9
e-0------2------0------3------0------4-------------0--------------------
B-0------2------2------3------3------5------4------0--------------------
G-1------3------2------0------0------6------4------1--------------------
D-2------2------2------0------2------6------4------4--------------------
A-2------4------0------2------3------4------2------2--------------------
E-0------2-------------3---------------------------0--------------------



Intro

E / F#7 / A / E /
E / F#7 / A / E /


Verse 1

E / F#7 / A / E /
E / F#7 / A / E /

G / Cadd9 / G / Cadd9 /
G / Cadd9 / G / A /


Verse 2

E / F#7 / A / E /
E / F#7 / A / E /
A / E / C#m A / E /
A / E / C#m A / E /

G / Cadd9 / G / Cadd9 /
G / Cadd9 / G / A / E /

20130713

PANNONIA ALLSTARS SKA ORCHESTRA NO LOVE IN TOWN TAB (SZÓLÓ)



PASO NO LOVE IN TOWN TAB


Szóló ~ 1:05

e-/5.---x-5---5-5-5----------------------------------------------5------
H-/5.---x-5---5-5-5-8p7p5-7-5-----------8-7.---5.---4.---5---\---4------
G---------------------------------8p7p5-8-7.---5.---4.---5---\----------
D-----------------------------------------------------------------------
A-----------------------------------------------------------------------
E-----------------------------------------------------------------------


e-/10.---x-10---10-10-10-------------------------/5.---x-5---5-5-5------
H-/10.---x-10---10-10-10-13-13-13----12-12-10.---/5.---x-5---5-5-5------
G------------------------13-13-13-12-12-12-10.--------------------------
D-----------------------------------------------------------------------
A-----------------------------------------------------------------------
E-----------------------------------------------------------------------


e-8p7p5---------------------12.---------12---------10-------10----------
H-------8p7p5-------7---/---15(17).-----15(17)-----13(15)---13(15).-----
G-------------8p7p5-----------------------------------------------------
D-----------------------------------------------------------------------
A-----------------------------------------------------------------------
E-----------------------------------------------------------------------


e-10-------10-10----------5-----5-5-5-------5------------12-------------
H-13(15)------13(15)------8(10)-----8(10)-----(10)---/---15(17)---------
G-----------------------------------------------------------------------
D-----------------------------------------------------------------------
A-----------------------------------------------------------------------
E-----------------------------------------------------------------------


Akkordmenet

  Am                             Dm               Am

e-5------------------------------5----------------5---------------------
H-5------------------------------6----------------5---------------------
G-5------------------------------7----------------5---------------------
D-7------------------------------7----------------7---------------------
A-7------------------------------5----------------7---------------------
E-5-----------------------------------------------5---------------------


  E7             Dm              Am

e----------------5---------------5--------------------------------------
H-5--------------6---------------5--------------------------------------
G-7--------------7---------------5--------------------------------------
D-6--------------7---------------7--------------------------------------
A-7--------------5---------------7--------------------------------------
E--------------------------------5--------------------------------------



20130621

ROAD VILÁGCSAVARGÓ TAB


Tuning: DGCFAd   !!!


 "F"     "Am"    "G"             "C"    "C/H"    "E7"
d-1-------0-------3---------------0-------0-------0---------------------
A-1-------1-------3---------------1-------1-------3---------------------
F-2-------2-------0---------------0-------0-------1---------------------
C-3-------2-------0---------------2-------0-------2---------------------
G-3-------0-------2---------------3-------2-------2---------------------
D-1---------------3-------------------------------0---------------------



Intro

c / G / Am / Am /
c / G / Am / Am /


Verse 1

c / G / Am / Am /
c / G / Am / Am /
c / G / Am / Am /
c / G / Am / G / Am / Am /

20130610

PANNONIA ALLSTARS SKA ORCHESTRA BUDAPEST TAB



PASO BUDAPEST TAB

Intro / solo

e-----------------------------------------------------------------------
H--9-/-11-11~-----11~-----11~--------13p11------------------------------
G-10-/-12------12------12------------------12---------------------------
D---------------------------------------------13-------13/15\12~--------
A-----------------------------------------------------------------------
E-----------------------------------------------------------------------


e-----------------------------------------------------------------------
H--9-/-11-11~-----11~-----11~--------13p11------------------------------
G-10-/-12------12------12------------------12---------------------------
D---------------------------------------------13-------12--/-15~--------
A-----------------------------------------------------------------------
E-----------------------------------------------------------------------


Verse / solo akkordmenet

  Cm                            Eb               Gm

e-8----------------------------------------------10---------------------
H-8-----------------------------8----------------11---------------------
G-8-----------------------------8----------------12---------------------
D-10----------------------------8----------------12---------------------
A-10----------------------------6----------------10---------------------
E-8---------------------------------------------------------------------



... Budapest ....        de csodááás

  Fm                            Cm

e-8-----------------------------8---------------------------------------
H-9-----------------------------8---------------------------------------
G-10----------------------------8---------------------------------------
D-10----------------------------10--------------------------------------
A-8-----------------------------10--------------------------------------
E-------------------------------8---------------------------------------


  Fm                            Gm                          G7    

e-8-----------------------------10--------------------------------------
H-9-----------------------------11---------------------------8----------
G-10----------------------------12--------------------------10----------
D-10----------------------------12---------------------------9----------
A-8-----------------------------10--------------------------10----------
E-----------------------------------------------------------------------


Vége

  Cm                                                   G7

e-8---------------------------------------------------------------------
H-8-----------------------------------------------------8.----8.--------
G-8----------------------------------------------------10.---10.--------
D-10----------------------------------------------------9.----9.--------
A-10---------------------------------------------------10.---10.--------
E-8---------------------------------------------------------------------



20121117

KOWALSKY MEG A VEGA OTTHON, ÉDES OTTHON TAB


Intro/Refr

e---------4-------2---------------0-------2-------4-------2---------
H-4-------5-------2---------------0-------2-------4-------2---------
G-4-------4-------3---------------1-------3-------4-------3---------
D-4-------6-------4---------------2-------4-------6-------4---------
A-2-------4-------4---------------2-------4-------6-------4---------
E-----------------2---------------0-------2-------4-------2---------


e---------4-------2---------------0-------2-------------------------
H-4-------5-------2---------------0-------2-------4-------4---------
G-4-------4-------3---------------1-------3-------4-------6---------
D-4-------6-------4---------------2-------4-------4-------5---------
A-2-------4-------4---------------2-------4-------2-------6---------
E-----------------2---------------0-------2-------------------------


Verse

e-4-------0-------4-------6-------4-------0-------4-------6---------
H-4-------0-------5-------7-------4-------0-------5-------7---------
G-4-------1-------4-------6-------4-------1-------4-------6---------
D-6-------2-------6-------8-------6-------2-------6-------8---------
A-6-------2-------4-------6-------6-------2-------4-------6---------
E-4-------0-----------------------4-------0-------------------------


e-4-------0-------4-------6-------0-------2-------4-------2---------
H-4-------0-------5-------7-------0-------2-------4-------2---------
G-4-------1-------4-------6-------1-------3-------4-------3---------
D-6-------2-------6-------8-------2-------4-------6-------4---------
A-6-------2-------4-------6-------2-------4-------6-------4---------
E-4-------0-----------------------0-------2-------4-------2---------


Instrumentál rész 2:40 körül

e-0---------------4---------------2-----------------------2---------
H-0---------------4---------------2---------------4-------2---------
G-1---------------4---------------3---------------4-------3---------
D-2---------------6---------------4---------------4-------4---------
A-2---------------6---------------4---------------2-------4---------
E-0---------------4---------------2-----------------------2---------


e-0---------------4---------------2---------------------------------
H-0---------------4---------------2---------------------------------
G-1---------------4---------------3---------------------------------
D-2---------------6---------------4---------------------------------
A-2---------------6---------------4---------------------------------
E-0---------------4---------------2---------------------------------


Transzponálás

e---------5-------3---------------1-------3-------5-------3---------
H-5-------6-------3---------------1-------3-------5-------3---------
G-5-------5-------4---------------2-------4-------5-------4---------
D-5-------7-------5---------------3-------5-------7-------5---------
A-3-------5-------5---------------3-------5-------7-------5---------
E-----------------3---------------1-------3-------5-------3---------


e---------5-------3---------------1-------3---------------3---------
H-5-------6-------3---------------1-------3-------5-------3---------
G-5-------5-------4---------------2-------4-------5-------4---------
D-5-------7-------5---------------3-------5-------5-------5---------
A-3-------5-------5---------------3-------5-------3-------5---------
E-----------------3---------------1-------3---------------3---------



20121115

GRINGO SZTÁR PÁLINKA SUNRISE TAB (AKKORDOK)


Refr

e---3---3---1---1---3---3---3---3-----------------------------------
H---4---4---1---1---3---3---4---4-----------------------------------
G---5---5---1---1---3---3---5---5-----------------------------------
D---5---5---3---3---5---5---5---5-----------------------------------
A---3---3---3---3---5---5---3---3-----------------------------------
E-----------1---1---3---3-------------------------------------------


Duma alatt

e----3-------------------------1-----------------3------------------
H----4-------------------------1-----------------3------------------
G----5------- 8x --------------1------ 4x -------3----- 4x ---------
D----5-------------------------3-----------------5------------------
A----3-------------------------3-----------------5------------------
E------------------------------1-----------------3------------------


Bridge

e-------------------------------------------------------------------
H-4---4-x-4-4---4-x-4--1---1-x-1-1---1-x-1-1---1-x-1-3---3---3-x-3-3
G-5---5-x-5-5---5-x-5--1---1-x-1-1---1-x-1-1---1-x-1-3---3---3-x-3-3
D-5---5-x-5-5---5-x-5--3---3-x-3-3---3-x-3-3---3-x-3-3---3---3-x-3-3
A-3---3---3-3---3---3--3---3---3-3---3---3-3---3-x-3----------------
E----------------------1---1---1-1---1---1-1---1-x-1----------------