A következő címkéjű bejegyzések mutatása: akord. Összes bejegyzés megjelenítése
A következő címkéjű bejegyzések mutatása: akord. Összes bejegyzés megjelenítése

20130621

ROAD VILÁGCSAVARGÓ TAB


Tuning: DGCFAd   !!!


 "F"     "Am"    "G"             "C"    "C/H"    "E7"
d-1-------0-------3---------------0-------0-------0---------------------
A-1-------1-------3---------------1-------1-------3---------------------
F-2-------2-------0---------------0-------0-------1---------------------
C-3-------2-------0---------------2-------0-------2---------------------
G-3-------0-------2---------------3-------2-------2---------------------
D-1---------------3-------------------------------0---------------------



Intro

c / G / Am / Am /
c / G / Am / Am /


Verse 1

c / G / Am / Am /
c / G / Am / Am /
c / G / Am / Am /
c / G / Am / G / Am / Am /

20130610

PANNONIA ALLSTARS SKA ORCHESTRA BUDAPEST TAB



PASO BUDAPEST TAB

Intro / solo

e-----------------------------------------------------------------------
H--9-/-11-11~-----11~-----11~--------13p11------------------------------
G-10-/-12------12------12------------------12---------------------------
D---------------------------------------------13-------13/15\12~--------
A-----------------------------------------------------------------------
E-----------------------------------------------------------------------


e-----------------------------------------------------------------------
H--9-/-11-11~-----11~-----11~--------13p11------------------------------
G-10-/-12------12------12------------------12---------------------------
D---------------------------------------------13-------12--/-15~--------
A-----------------------------------------------------------------------
E-----------------------------------------------------------------------


Verse / solo akkordmenet

  Cm                            Eb               Gm

e-8----------------------------------------------10---------------------
H-8-----------------------------8----------------11---------------------
G-8-----------------------------8----------------12---------------------
D-10----------------------------8----------------12---------------------
A-10----------------------------6----------------10---------------------
E-8---------------------------------------------------------------------



... Budapest ....        de csodááás

  Fm                            Cm

e-8-----------------------------8---------------------------------------
H-9-----------------------------8---------------------------------------
G-10----------------------------8---------------------------------------
D-10----------------------------10--------------------------------------
A-8-----------------------------10--------------------------------------
E-------------------------------8---------------------------------------


  Fm                            Gm                          G7    

e-8-----------------------------10--------------------------------------
H-9-----------------------------11---------------------------8----------
G-10----------------------------12--------------------------10----------
D-10----------------------------12---------------------------9----------
A-8-----------------------------10--------------------------10----------
E-----------------------------------------------------------------------


Vége

  Cm                                                   G7

e-8---------------------------------------------------------------------
H-8-----------------------------------------------------8.----8.--------
G-8----------------------------------------------------10.---10.--------
D-10----------------------------------------------------9.----9.--------
A-10---------------------------------------------------10.---10.--------
E-8---------------------------------------------------------------------