A következő címkéjű bejegyzések mutatása: akordok. Összes bejegyzés megjelenítése
A következő címkéjű bejegyzések mutatása: akordok. Összes bejegyzés megjelenítése

20130610

PANNONIA ALLSTARS SKA ORCHESTRA BUDAPEST TAB



PASO BUDAPEST TAB

Intro / solo

e-----------------------------------------------------------------------
H--9-/-11-11~-----11~-----11~--------13p11------------------------------
G-10-/-12------12------12------------------12---------------------------
D---------------------------------------------13-------13/15\12~--------
A-----------------------------------------------------------------------
E-----------------------------------------------------------------------


e-----------------------------------------------------------------------
H--9-/-11-11~-----11~-----11~--------13p11------------------------------
G-10-/-12------12------12------------------12---------------------------
D---------------------------------------------13-------12--/-15~--------
A-----------------------------------------------------------------------
E-----------------------------------------------------------------------


Verse / solo akkordmenet

  Cm                            Eb               Gm

e-8----------------------------------------------10---------------------
H-8-----------------------------8----------------11---------------------
G-8-----------------------------8----------------12---------------------
D-10----------------------------8----------------12---------------------
A-10----------------------------6----------------10---------------------
E-8---------------------------------------------------------------------



... Budapest ....        de csodááás

  Fm                            Cm

e-8-----------------------------8---------------------------------------
H-9-----------------------------8---------------------------------------
G-10----------------------------8---------------------------------------
D-10----------------------------10--------------------------------------
A-8-----------------------------10--------------------------------------
E-------------------------------8---------------------------------------


  Fm                            Gm                          G7    

e-8-----------------------------10--------------------------------------
H-9-----------------------------11---------------------------8----------
G-10----------------------------12--------------------------10----------
D-10----------------------------12---------------------------9----------
A-8-----------------------------10--------------------------10----------
E-----------------------------------------------------------------------


Vége

  Cm                                                   G7

e-8---------------------------------------------------------------------
H-8-----------------------------------------------------8.----8.--------
G-8----------------------------------------------------10.---10.--------
D-10----------------------------------------------------9.----9.--------
A-10---------------------------------------------------10.---10.--------
E-8---------------------------------------------------------------------



20121117

KOWALSKY MEG A VEGA OTTHON, ÉDES OTTHON TAB


Intro/Refr

e---------4-------2---------------0-------2-------4-------2---------
H-4-------5-------2---------------0-------2-------4-------2---------
G-4-------4-------3---------------1-------3-------4-------3---------
D-4-------6-------4---------------2-------4-------6-------4---------
A-2-------4-------4---------------2-------4-------6-------4---------
E-----------------2---------------0-------2-------4-------2---------


e---------4-------2---------------0-------2-------------------------
H-4-------5-------2---------------0-------2-------4-------4---------
G-4-------4-------3---------------1-------3-------4-------6---------
D-4-------6-------4---------------2-------4-------4-------5---------
A-2-------4-------4---------------2-------4-------2-------6---------
E-----------------2---------------0-------2-------------------------


Verse

e-4-------0-------4-------6-------4-------0-------4-------6---------
H-4-------0-------5-------7-------4-------0-------5-------7---------
G-4-------1-------4-------6-------4-------1-------4-------6---------
D-6-------2-------6-------8-------6-------2-------6-------8---------
A-6-------2-------4-------6-------6-------2-------4-------6---------
E-4-------0-----------------------4-------0-------------------------


e-4-------0-------4-------6-------0-------2-------4-------2---------
H-4-------0-------5-------7-------0-------2-------4-------2---------
G-4-------1-------4-------6-------1-------3-------4-------3---------
D-6-------2-------6-------8-------2-------4-------6-------4---------
A-6-------2-------4-------6-------2-------4-------6-------4---------
E-4-------0-----------------------0-------2-------4-------2---------


Instrumentál rész 2:40 körül

e-0---------------4---------------2-----------------------2---------
H-0---------------4---------------2---------------4-------2---------
G-1---------------4---------------3---------------4-------3---------
D-2---------------6---------------4---------------4-------4---------
A-2---------------6---------------4---------------2-------4---------
E-0---------------4---------------2-----------------------2---------


e-0---------------4---------------2---------------------------------
H-0---------------4---------------2---------------------------------
G-1---------------4---------------3---------------------------------
D-2---------------6---------------4---------------------------------
A-2---------------6---------------4---------------------------------
E-0---------------4---------------2---------------------------------


Transzponálás

e---------5-------3---------------1-------3-------5-------3---------
H-5-------6-------3---------------1-------3-------5-------3---------
G-5-------5-------4---------------2-------4-------5-------4---------
D-5-------7-------5---------------3-------5-------7-------5---------
A-3-------5-------5---------------3-------5-------7-------5---------
E-----------------3---------------1-------3-------5-------3---------


e---------5-------3---------------1-------3---------------3---------
H-5-------6-------3---------------1-------3-------5-------3---------
G-5-------5-------4---------------2-------4-------5-------4---------
D-5-------7-------5---------------3-------5-------5-------5---------
A-3-------5-------5---------------3-------5-------3-------5---------
E-----------------3---------------1-------3---------------3---------



20121115

GRINGO SZTÁR PÁLINKA SUNRISE TAB (AKKORDOK)


Refr

e---3---3---1---1---3---3---3---3-----------------------------------
H---4---4---1---1---3---3---4---4-----------------------------------
G---5---5---1---1---3---3---5---5-----------------------------------
D---5---5---3---3---5---5---5---5-----------------------------------
A---3---3---3---3---5---5---3---3-----------------------------------
E-----------1---1---3---3-------------------------------------------


Duma alatt

e----3-------------------------1-----------------3------------------
H----4-------------------------1-----------------3------------------
G----5------- 8x --------------1------ 4x -------3----- 4x ---------
D----5-------------------------3-----------------5------------------
A----3-------------------------3-----------------5------------------
E------------------------------1-----------------3------------------


Bridge

e-------------------------------------------------------------------
H-4---4-x-4-4---4-x-4--1---1-x-1-1---1-x-1-1---1-x-1-3---3---3-x-3-3
G-5---5-x-5-5---5-x-5--1---1-x-1-1---1-x-1-1---1-x-1-3---3---3-x-3-3
D-5---5-x-5-5---5-x-5--3---3-x-3-3---3-x-3-3---3-x-3-3---3---3-x-3-3
A-3---3---3-3---3---3--3---3---3-3---3---3-3---3-x-3----------------
E----------------------1---1---1-1---1---1-1---1-x-1----------------