A következő címkéjű bejegyzések mutatása: budapest. Összes bejegyzés megjelenítése
A következő címkéjű bejegyzések mutatása: budapest. Összes bejegyzés megjelenítése

20130610

PANNONIA ALLSTARS SKA ORCHESTRA BUDAPEST TAB



PASO BUDAPEST TAB

Intro / solo

e-----------------------------------------------------------------------
H--9-/-11-11~-----11~-----11~--------13p11------------------------------
G-10-/-12------12------12------------------12---------------------------
D---------------------------------------------13-------13/15\12~--------
A-----------------------------------------------------------------------
E-----------------------------------------------------------------------


e-----------------------------------------------------------------------
H--9-/-11-11~-----11~-----11~--------13p11------------------------------
G-10-/-12------12------12------------------12---------------------------
D---------------------------------------------13-------12--/-15~--------
A-----------------------------------------------------------------------
E-----------------------------------------------------------------------


Verse / solo akkordmenet

  Cm                            Eb               Gm

e-8----------------------------------------------10---------------------
H-8-----------------------------8----------------11---------------------
G-8-----------------------------8----------------12---------------------
D-10----------------------------8----------------12---------------------
A-10----------------------------6----------------10---------------------
E-8---------------------------------------------------------------------



... Budapest ....        de csodááás

  Fm                            Cm

e-8-----------------------------8---------------------------------------
H-9-----------------------------8---------------------------------------
G-10----------------------------8---------------------------------------
D-10----------------------------10--------------------------------------
A-8-----------------------------10--------------------------------------
E-------------------------------8---------------------------------------


  Fm                            Gm                          G7    

e-8-----------------------------10--------------------------------------
H-9-----------------------------11---------------------------8----------
G-10----------------------------12--------------------------10----------
D-10----------------------------12---------------------------9----------
A-8-----------------------------10--------------------------10----------
E-----------------------------------------------------------------------


Vége

  Cm                                                   G7

e-8---------------------------------------------------------------------
H-8-----------------------------------------------------8.----8.--------
G-8----------------------------------------------------10.---10.--------
D-10----------------------------------------------------9.----9.--------
A-10---------------------------------------------------10.---10.--------
E-8---------------------------------------------------------------------