A következő címkéjű bejegyzések mutatása: byealex. Összes bejegyzés megjelenítése
A következő címkéjű bejegyzések mutatása: byealex. Összes bejegyzés megjelenítése

20140412

BYEALEX AZ ÉN RÓZSÁM TAB

A billentyű és a hegedű szólam gitáron ...



BYEALEX AZ ÉN RÓZSÁM TAB

(6/8) Capo on the 2nd

e-------0-----------------------0---------------------------------------
H-------1-----------------------1---------------------------------------
G-------2-----------------------0---------------------------------------
D-------2-----------------------2---------------------------------------
A-0-----------------------3---------------------------------------------
E-----------------------------------------------------------------------


e-------------------------------0---------------------------------------
H-------3-----------------------1---------------------------------------
G-------0-----------------------2---------------------------------------
D-------0-----------------------2---------------------------------------
A-------2-----------------0---------------------------------------------
E-3---------------------------------------------------------------------


Gyors rész (zongora)

e-----------0-5-7-8-7-5-0---------------8-10-12-10-8--------------------
H-------0-1---------------------------8--------------8------------------
G-----2-----------------------------9-----------------------------------
D---2-------------------------10-12-------------------------------------
A-0-------------------------10------------------------------------------
E-------------------------8---------------------------------------------

20130331

BYEALEX KEDVESEM TAB

Ez a dal képviselte Magyarországot a 2013-as Eurovision Song Contest eseményen.
A tab és a videó a stúdió verzió alapján készült.


BYEALEX KEDVESEM TAB

Intro

e-----------------------------------------------------------------------
B-----------------------------------------------------------------------
G-----------------------------------------------------------------------
D----5-----5-----2-----2----------   4x   ------------------------------
A-3-----3-----3-----3---------------------------------------------------
E-----------------------------------------------------------------------

Verse

e-----------------------------------------------------------------------
B-----------------------------------------------------------------------
G-----------------------------------------------------------------------
D----5-----5-----2-----2-----5-----5-----2-----2------------------------
A-3-----3-----3-----3-----3-----3-----3-----3---------------------------
E-----------------------------------------------------------------------


e-----------------------------------------------------------------------
B-----------------------------------------------------------------------
G-----------------------------------------------------------------------
D----5-----5-----2-----2-----5-----5-----2------------------------------
A-3-----3-----3-----3-----3-----3-----3-----3--2------------------------
E-----------------------------------------------------------------------


e-----------------------------------------------------------------------
B-----------------------------------------------------------------------
G-----------------------------------------------------------------------
D----5-----5-----2-----2-----5-----5-----2------------------------------
A-0-----0-----0-----0-----0-----0-----0-----0--2------------------------
E-----------------------------------------------------------------------


e-----------------------------------------------------------------------
B-----------------------------------------------------------------------
G-----------------------------------------------------------------------
D----5-----5-----2-----2-----5-----5-----2-----2------------------------
A-3-----3-----3-----3-----3-----3-----3-----3---------------------------
E-----------------------------------------------------------------------

Refr

e-----------------------------------------------------------------------
B-----------------------------------------------------------------------
G-----------------------------------------------------------------------
D----5-----5-----2-----2-----5-----5-----2------------------------------
A-3-----3-----3-----3-----3-----3-----3-----3--2------------------------
E-----------------------------------------------------------------------


e-----------------------------------------------------------------------
B-----------------------------------------------------------------------
G----2-----2-----------------2-----2------------------------------------
D----------------2-----2-----------------2------------------------------
A-0-----0-----0-----0-----0-----0-----0-----0---------------------------
E----------------------------------------------3------------------------


e-----------------------------------------------------------------------
B-----------------------------------------------------------------------
G----2-----2-----------------2-----2-----0------------------------------
D----------------2-----2------------------------------------------------
A-------------------------------------------0--2------------------------
E-1-----1-----1-----1-----1-----1-----1---------------------------------


e-----------------------------------------------------------------------
B-----------------------------------------------------------------------
G-----------------------------------------------------------------------
D----5-----5-----2-----2-----5-----5-----2-----2------------------------
A-3-----3-----3-----3-----3-----3-----3-----3---------------------------
E-----------------------------------------------------------------------