A következő címkéjű bejegyzések mutatása: charlie. Összes bejegyzés megjelenítése
A következő címkéjű bejegyzések mutatása: charlie. Összes bejegyzés megjelenítése

20140331

HORVÁTH CHARLIE MINDENKI VALAKIÉ TAB (SZÓLÓ)



e-----------------------------------------------------------------------
B-----------------------------------------------------------------------
G-14(16)---14(16)(14)p12-14-p-12----12.--12-----------------------------
D--------------------------------14---------14----12.--14~--------------
A----------------------------------------------14-----------------------
E-----------------------------------------------------------------------


e-----------------------------------------------------------------------
B----------------------------------15/17~-------------------------------
G-14(16)---(16)-(14)p12-14-p-12-----------------------------------------
D-------------------------------14--------------------------------------
A-----------------------------------------------------------------------
E-----------------------------------------------------------------------


e-17(19)---17(19)---17(19)(17)p15---------------------------------------
B---------------------------------17~-----------------------------------
G-----------------------------------------------------------------------
D-----------------------------------------------------------------------
A-----------------------------------------------------------------------
E-----------------------------------------------------------------------


e-----------------------------------------------------------------------
B-----------------------------------------------------------------------
G-14-12.--(16)-(14)p12--------------------------------------------------
D----------------------14~---------------12-----------------------------
A------------------------------------------12(14)-(12)p10-12(14)~-------
E-----------------------------------------------------------------------