A következő címkéjű bejegyzések mutatása: cover. Összes bejegyzés megjelenítése
A következő címkéjű bejegyzések mutatása: cover. Összes bejegyzés megjelenítése

20150512

SZEKERES ADRIENN OLYAN, MINT TE TAB (MÓKOS JÁNOS GUITAR COVER)

Mókos János instrumentális videója Szekeres Adrienn - Olyan, mint Te című dala alapján.


SZEKERES ADRIENN OLYAN, MINT TE INSTRUMENTÁLIS TAB

Part 1

e-----------------------------------------------------------------------
B----------------------10.----------------------------------------------
G-------------9.--10--------12~----------10.--9~------------9-----------
D--------12---------------------------------------12.--11-----12~--\----
A---12------------------------------------------------------------------
E-----------------------------------------------------------------------


e-----------------------------------------------------------------------
B-----------------------10.--11~-------------------------11-----10~-----
G--------------9.--10-----------------------------------------12--------
D---------12------------------------------12.--10---10.-----------------
A---/12-----------------------------------------------------------------
E-----------------------------------------------------------------------


e-----------------------------------------------------------------------
B-----10---10.--10--h11p10----------------------------------------------
G------------------------------12~--------------------------------------
D---10------------------------------------------------------------------
A-----------------------------------------------------------------------
E-----------------------------------------------------------------------

20140707

CSÍK ZENEKAR FERENCZI GYÖRGY EZ A VONAT HA ELINDULT TAB (EGER - 2009)

Csík Zenekar és Ferenczi György - Ez a vonat ha elindult ...
A tab az 1:00-nál kezdődő verse rész alapján készült, nagyjából ez a kör megy végig.


EZ A VONAT HA ELINDULT TAB


e-----------------------------------------------------------------------
B---------------------------------------6-------4-----------------------
G-----3-----3-----3-----3-----3-----3---5------4------------------------
D---3-----3-----3-----3-----5-----5-----6-----3-------------------------
A-------------------5-----6-----7-----5---------------------------------
E-3-----5-----6---------------------------4-3---------------------------


e---------------------1-------------------------------------------------
B---------------4-----1-------6-----6-----6-5----4----------------------
G-----3-----3---5-----2-------7-----5-----5-5---5-----------------------
D---5-----5-----5-------------7-----5-----4-4--4------------------------
A-3-------------------------------6---6-5-----5-------------------------
E-------6-----5---5-1---1-/-6---6---------------------------------------


e-----------------------------------------------------------------------
B---------------3-----4-----------------------4-------------------------
G-----3-----3---3-----3---5.--5---------3-----4-------------------------
D---3-----3-----5-----5---5.--4---------3-----3-------------------------
A-------------6---6-3---3---------------------4-------------------------
E-3-----1-----------------5.--4---------3-------------------------------


e-----------------------------------------------------------------------
B---------4-----6-5----4--------------------------7---------------------
G-----3---5-----5-5---5-----------3-----3-3.------7---------------------
D---5-----5-----4-4--4----------3-----3---3.------8---------------------
A-3-----------5-----5-----------------------------9---------------------
E-------5---5-----------------3-----5-----3.----------------------------



20130331

BYEALEX KEDVESEM TAB

Ez a dal képviselte Magyarországot a 2013-as Eurovision Song Contest eseményen.
A tab és a videó a stúdió verzió alapján készült.


BYEALEX KEDVESEM TAB

Intro

e-----------------------------------------------------------------------
B-----------------------------------------------------------------------
G-----------------------------------------------------------------------
D----5-----5-----2-----2----------   4x   ------------------------------
A-3-----3-----3-----3---------------------------------------------------
E-----------------------------------------------------------------------

Verse

e-----------------------------------------------------------------------
B-----------------------------------------------------------------------
G-----------------------------------------------------------------------
D----5-----5-----2-----2-----5-----5-----2-----2------------------------
A-3-----3-----3-----3-----3-----3-----3-----3---------------------------
E-----------------------------------------------------------------------


e-----------------------------------------------------------------------
B-----------------------------------------------------------------------
G-----------------------------------------------------------------------
D----5-----5-----2-----2-----5-----5-----2------------------------------
A-3-----3-----3-----3-----3-----3-----3-----3--2------------------------
E-----------------------------------------------------------------------


e-----------------------------------------------------------------------
B-----------------------------------------------------------------------
G-----------------------------------------------------------------------
D----5-----5-----2-----2-----5-----5-----2------------------------------
A-0-----0-----0-----0-----0-----0-----0-----0--2------------------------
E-----------------------------------------------------------------------


e-----------------------------------------------------------------------
B-----------------------------------------------------------------------
G-----------------------------------------------------------------------
D----5-----5-----2-----2-----5-----5-----2-----2------------------------
A-3-----3-----3-----3-----3-----3-----3-----3---------------------------
E-----------------------------------------------------------------------

Refr

e-----------------------------------------------------------------------
B-----------------------------------------------------------------------
G-----------------------------------------------------------------------
D----5-----5-----2-----2-----5-----5-----2------------------------------
A-3-----3-----3-----3-----3-----3-----3-----3--2------------------------
E-----------------------------------------------------------------------


e-----------------------------------------------------------------------
B-----------------------------------------------------------------------
G----2-----2-----------------2-----2------------------------------------
D----------------2-----2-----------------2------------------------------
A-0-----0-----0-----0-----0-----0-----0-----0---------------------------
E----------------------------------------------3------------------------


e-----------------------------------------------------------------------
B-----------------------------------------------------------------------
G----2-----2-----------------2-----2-----0------------------------------
D----------------2-----2------------------------------------------------
A-------------------------------------------0--2------------------------
E-1-----1-----1-----1-----1-----1-----1---------------------------------


e-----------------------------------------------------------------------
B-----------------------------------------------------------------------
G-----------------------------------------------------------------------
D----5-----5-----2-----2-----5-----5-----2-----2------------------------
A-3-----3-----3-----3-----3-----3-----3-----3---------------------------
E-----------------------------------------------------------------------