A következő címkéjű bejegyzések mutatása: curtis blr. Összes bejegyzés megjelenítése
A következő címkéjű bejegyzések mutatása: curtis blr. Összes bejegyzés megjelenítése

20140710

MAJKA CURTIS BLR BELEHALOK TAB

A stúdió verzió első felében a #1 riff, a második felében inkább a #2 szól.
Capo a 4. bundon.

MAJKA CURTIS BLR BELEHALOK TAB

#1

e---------5-------4-----------------------5-----------9---10---9--------
B-------------------------------------------------7/9-------------------
G-----6-------6-------6---4---6-------6-------6-------------------------
D-4-------------------------------4-------------------------------------
A-----------------------------------------------------------------------
E-----------------------------------------------------------------------


e-----------------------------------------------------------------------
B---------9-------9------------------------10---------------------------
G-------------------------6--------------------------4------------------
D-----9-------9-------9-------9-------9/11------11-------7-p-6-h-7------
A-4-------------------------------4-------------------------------------
E-----------------------------------------------------------------------


#2

e---------5-------4-----------------------5-------4-------10---9--------
B-----------------------------------------------------------------------
G-----6-------6-------6---4---6-------6-------6-------6-----------------
D-4-------------------------------4-------------------------------------
A-----------------------------------------------------------------------
E-----------------------------------------------------------------------


e-----------------------------------------------------------------------
B---------9-------9----------------------10-----------------------------
G-------------------------6------------------------4--------------------
D-----9-------9-------9-------9-------11------11-------7-p-6-h-7--------
A-4-------------------------------4-------------------------------------
E-----------------------------------------------------------------------