A következő címkéjű bejegyzések mutatása: gitár kotta. Összes bejegyzés megjelenítése
A következő címkéjű bejegyzések mutatása: gitár kotta. Összes bejegyzés megjelenítése

20121117

KOWALSKY MEG A VEGA OTTHON, ÉDES OTTHON TAB


Intro/Refr

e---------4-------2---------------0-------2-------4-------2---------
H-4-------5-------2---------------0-------2-------4-------2---------
G-4-------4-------3---------------1-------3-------4-------3---------
D-4-------6-------4---------------2-------4-------6-------4---------
A-2-------4-------4---------------2-------4-------6-------4---------
E-----------------2---------------0-------2-------4-------2---------


e---------4-------2---------------0-------2-------------------------
H-4-------5-------2---------------0-------2-------4-------4---------
G-4-------4-------3---------------1-------3-------4-------6---------
D-4-------6-------4---------------2-------4-------4-------5---------
A-2-------4-------4---------------2-------4-------2-------6---------
E-----------------2---------------0-------2-------------------------


Verse

e-4-------0-------4-------6-------4-------0-------4-------6---------
H-4-------0-------5-------7-------4-------0-------5-------7---------
G-4-------1-------4-------6-------4-------1-------4-------6---------
D-6-------2-------6-------8-------6-------2-------6-------8---------
A-6-------2-------4-------6-------6-------2-------4-------6---------
E-4-------0-----------------------4-------0-------------------------


e-4-------0-------4-------6-------0-------2-------4-------2---------
H-4-------0-------5-------7-------0-------2-------4-------2---------
G-4-------1-------4-------6-------1-------3-------4-------3---------
D-6-------2-------6-------8-------2-------4-------6-------4---------
A-6-------2-------4-------6-------2-------4-------6-------4---------
E-4-------0-----------------------0-------2-------4-------2---------


Instrumentál rész 2:40 körül

e-0---------------4---------------2-----------------------2---------
H-0---------------4---------------2---------------4-------2---------
G-1---------------4---------------3---------------4-------3---------
D-2---------------6---------------4---------------4-------4---------
A-2---------------6---------------4---------------2-------4---------
E-0---------------4---------------2-----------------------2---------


e-0---------------4---------------2---------------------------------
H-0---------------4---------------2---------------------------------
G-1---------------4---------------3---------------------------------
D-2---------------6---------------4---------------------------------
A-2---------------6---------------4---------------------------------
E-0---------------4---------------2---------------------------------


Transzponálás

e---------5-------3---------------1-------3-------5-------3---------
H-5-------6-------3---------------1-------3-------5-------3---------
G-5-------5-------4---------------2-------4-------5-------4---------
D-5-------7-------5---------------3-------5-------7-------5---------
A-3-------5-------5---------------3-------5-------7-------5---------
E-----------------3---------------1-------3-------5-------3---------


e---------5-------3---------------1-------3---------------3---------
H-5-------6-------3---------------1-------3-------5-------3---------
G-5-------5-------4---------------2-------4-------5-------4---------
D-5-------7-------5---------------3-------5-------5-------5---------
A-3-------5-------5---------------3-------5-------3-------5---------
E-----------------3---------------1-------3---------------3---------



20121106

BIKINI KÖZELI HELYEKEN TAB (SZÓLÓ)



BIKINI KÖZELI HELYEKEN SZÓLÓ TAB

Akusztikus gitár

e-------------------------------------------------------------------
H-----------------------------0-------------------------------------
G------------0------------0-2-----2---0-----------------------------
D-2------4-------4----------------------4-2-------------------------
A-------------------------------------------------------------------
E-------------------------------------------------------------------


e-------------------------------------------------------------------
H-------------0-------------------0---1-----------------------------
G-------2-----------2h4p2-0---2---------2-4~------------------------
D-2-4-5---5---------------------------------------------------------
A-------------------------------------------------------------------
E-------------------------------------------------------------------


Szólógitár

e-12---15---17---17(19)\-/(19)---17(19)---(19)-(19)\(17)p15-17~-----
H-------------------------------------------------------------------
G-------------------------------------------------------------------
D-------------------------------------------------------------------
A-------------------------------------------------------------------
E-------------------------------------------------------------------


e-22(24)\-/(24)---22(24)---22---19h22-19----------------------------
H-------------------------------------------------------------------
G-------------------------------------------------------------------
D-------------------------------------------------------------------
A-------------------------------------------------------------------
E-------------------------------------------------------------------


e-------5--------------7-8------------------------------------------
H-5-7-8---8~---/8---10-----10~---8(10)---8-7h8p7--------------------
G-----------------------------------------------8---8/10~-----------
D-------------------------------------------------------------------
A-------------------------------------------------------------------
E-------------------------------------------------------------------



EDDA A KÖR TAB (SZÓLÓ)



e-15(17)-15(17)\(15)/(17)\(15)/(17)~--------------------------------
H-------------------------------------------------------------------
G-------------------------------------------------------------------
D-------------------------------------------------------------------
A-------------------------------------------------------------------
E-------------------------------------------------------------------


e-15(17)-15-13--12-13----12-----------------------------------------
H---------------------15-----13-15-12-13p12--12~~-------------------
G------------------------------------------14-----------------------
D-------------------------------------------------------------------
A-------------------------------------------------------------------
E-------------------------------------------------------------------


e-------------------------------------------------------------------
H-------------------------------------------------------------------
G-5-7-5-7-7(9)-7-5-4-----------------------------7(9)-7-//-(9)~~~---
D-------------------5~~-------------------5~------------------------
A-----------------------------3---3-7--3-5--------------------------
E-------------------------3-5---5-----------------------------------
  x x x x                 x x x x   x  x


e-------------------------------------------------------------------
H-----8------------------------8-10p8--8~--5------------------------
G-7(9)--7(9)\(7)-5-4-5-4-------------9-------7-7p5--5---5-----------
D-----------------------5~~-----------------------7---7-------------
A-------------------------------------------------------------------
E-------------------------------------------------------------------


e-------------------------------------------------------------------
H-------------------------------------------------------------------
G-7(9)-7-5-4-5-4----------------------------------------------------
D---------------5~~--------------------5~---------------------------
A--------------------------3-3/5---5--5-----------------------------
E----------------------3-5-------5--8-------------------------------
                       x x       x  x  

e-------------------------------------------------------------------
H----------------------------13(15)-13-12----12---------------------
G-7(9)-7-5-4-5-4-----------12-------------14----12-14~~-------------
D---------------5~~-------------------------------------------------
A-------------------------------------------------------------------
E-------------------------------------------------------------------
                           x

e--------------12-13----12------------------------------------------
H-12--12-13-15-------15----13-15-12-13p12--12~----8-10p8---8--------
G----------------------------------------14-------------9----9-7-5~~
D-------------------------------------------------------------------
A-------------------------------------------------------------------
E-------------------------------------------------------------------


e-------------------------------------------------------------------
H-----8---------------------------------------------10~~--------\---
G-7(9)--7(9)\(7)-5-4--5-4-------------------------------------------
D------------------------5~~-----------------5~---------------------
A-----------------------------------3-5-7-3-5-----------------------
E-------------------------------3-5---------------------------------
                                    x     x



HOOLIGANS MENJ TOVÁBB TAB



verse

  Em      G       Em      G   D    Em      G       Em      G   D   

e-3-------3-------3-------3---2----3-------3-------3-------3---2----
H-0-------0-------0-------0---3----0-------0-------0-------0---3----
G-0-------0-------0-------0---2----0-------0-------0-------0---2----
D-2-------0-------2-------0---0----2-------0-------2-------0---0----
A-2-------2-------2-------2---0----2-------2-------2-------2---0----
E-0-------3-------0-------3--------0-------3-------0-------3--------


Bridge

  C       Em      C       Em      C       Em      A       D7

e-3-------3-------3-------3-------3-------3-------0-------2---------
H-1-------0-------1-------0-------1-------0-------2-------1---------
G-0-------0-------0-------0-------0-------0-------2-------2---------
D-2-------2-------2-------2-------2-------2-------2-------0---------
A-3-------2-------3-------2-------3-------2-------0-------0---------
E---------0---------------0---------------0-------------------------


Refr

  G   Hm  C   D   G   Hm  C   D   G   H   C   D   G   Hm  C   D  

e-3---2---0---2---3---2---0---2---3---2---0---2---3---2---0---2-----
H-0---3---1---3---0---3---1---3---0---4---1---3---0---3---1---3-----
G-0---4---0---2---0---4---0---2---0---4---0---2---0---4---0---2-----
D-0---4---2---0---0---4---2---0---0---4---2---0---0---4---2---0-----
A-2---2---3---0---2---2---3---0---2---2---3---0---2---2---3---0-----
E-3---------------3---------------3---------------3-----------------


Szóló

e-------------------------------------------------------------------
H--------------------------------------15(17)------15~--------------
G-/12---12---12-12-11.--12.-12h14-----------------------------------
D-------------------------------------------------------------------
A-------------------------------------------------------------------
E-------------------------------------------------------------------


e----15---15--15--15--15--15.--17(19)-------------------------------
H-/15--15---15--15--15--15----------------15(17)--15(17).--15-------
G-------------------------------------------------------------------
D-------------------------------------------------------------------
A-------------------------------------------------------------------
E-------------------------------------------------------------------


e------------------11--------11-11-11h12----------------------------
H-------------12----------------------------------------------------
G-/12p11-12---------------------------------------------------------
D-------------------------------------------------------------------
A-------------------------------------------------------------------
E-------------------------------------------------------------------


e-------------------------------------------------------------------
H-/15------15-------------------------------------------------------
G-/14(16)--14(16)--14(16)(14)-12----------------12-12---------------
D----------------------------------------12h14----------------------
A-------------------------------------------------------------------
E-------------------------------------------------------------------


e--------------12--------12---------------------15------------------
H-----------------------------------------------15-15---------------
G-12-12-14(16)----14(16)----14(16)-------14(16)-------(16)(14)--12--
D-------------------------------------------------------------------
A-------------------------------------------------------------------
E-------------------------------------------------------------------



EDDA ELHAGYOM A VÁROST TAB (SZÓLÓ)



e-------------------------------------------------------------------
H-------------------------------------------------------------------
G-2(3)(2)-0----------------0-2(3)(2)-0------------------------------
D----------3/5~-----------------------3/5~--------------------------
A-------------------------------------------------------------------
E-------------------------------------------------------------------


e-------------------------------------------------------------------
H-------------------------------------------------------------------
G-0.-3.-5(7).-5.-3(5)(3)(5)(3)(5)(3)~~------------------------------
D-------------------------------------------------------------------
A-------------------------------------------------------------------
E-------------------------------------------------------------------


e-------------------------------------------------------------------
H-----------3''''(5)~~-----------------5'''(7)~--5(7)-5(7)~~----/---
G-2(3)(2)-0----------------0-2(3)(2)-0------------------------------
D-------------------------------------------------------------------
A-------------------------------------------------------------------
E-------------------------------------------------------------------


e---------10---------------------------------8----------------------
H-10''(12)---(12)(10)-8.--10.-8-8-8~--\-----------------------------
G------------------------------9-9--------/9--9~--------------------
D-------------------------------------------------------------------
A-------------------------------------------------------------------
E-------------------------------------------------------------------


e------------6------------------------------------------------------
H---4.-(8)(6)--(8)(6)-4---------------------------/3----------------
G-5.-----------------------------2(3)(2)-0-2-----0--4~---2.-0~------
D--------------------------------------------2-0--------------------
A-------------------------------------------------------------------
E-------------------------------------------------------------------



fillek
       0:50                                        0:57
e---------------------------10--------------------------------------
H---(12)\(10)-10.-8.--10(12)----------------(17)(15)-12-------------
G-------------------------------------------------------14(16)-14~--
D-------------------------------------------------------------------
A-------------------------------------------------------------------
E-------------------------------------------------------------------

        1:04                         1:49                    
e-10----------------------------------------------------------------
H---(12)(10)-8~-----------------------------------------------------
G-------------------------------(16)(14)-12.-12~--------------------
D-------------------------------------------------------------------
A-------------------------------------------------------------------
E-------------------------------------------------------------------


      1:54
e-------------------------------------------------------------------
H-------------------------------------------------------------------
G-(7)(5)p3.-5.-3.-5'''(7)~~-----------------------------------------
D-------------------------------------------------------------------
A-------------------------------------------------------------------
E-------------------------------------------------------------------



      2:01                                  2:15               
e--------------10---------------------------------------------------
H-----8--10(12)--(12)(10)-8-8~--------------------------------------
G-7h9----------------------9--------------3-------------------------
D------------------------------------------5~-----------------------
A-------------------------------------------------------------------
E-------------------------------------------------------------------


      2:23                                     2:28
e-------------------------------------------------------------------
H-----------------------------------15-12---------------------------
G-(7)(5)-3-5'''(7)------------------------14(16)(14)-12.-12~--------
D-------------------------------------------------------------------
A-------------------------------------------------------------------
E-------------------------------------------------------------------



PIRAMIS CSAK RÖVID IDŐ TAB (MAIN RIFF)



e-------------------------------------------------------------------
H-------------------------------------------------------------------
G-------------------------------------------------------------------
D---2---p1p0-----------------------------------------2-0h1h2--------
A-----------2p1p0--------1'------3p2-3p2-1'-----2------------2------
E-0---------------3'---0------------------------0------------0------
  x                    x         


e-------------------------------------------------------------------
H-------------------------------------------------------------------
G-------------------------------------------------------------------
D---2---p1p0-----------------------------------------2-0h1h2--------
A-----------2p1p0--------1'------3p2-3p2-1'-----2------------2------
E-0---------------3'---0------------------------0------------0------
  x                    x         


e-------------------------------------------------------------------
H-------------------------------------------------------------------
G-------------------------------------------------------------------
D-9---x-x-x-x-x-x-x-x-x-x-9-9-9-9--7/9-x-x-x-x-x-x-x-x-x-x-7-x-7-x--
A-7---x-x-x-x-x-x-x-x-x-x-7-7-7-7--5/7-x-x-x-x-x-x-x-x-x-x-5-x-5-x--
E-------------------------------------------------------------------


e-------------------------------------------------------------------
H-------------------------------------------------------------------
G-------------------------------------------------------------------
D-7/9-x-x-x-x-x-x-x-x-x-x-7-x-7-x---7/9-x-x-x-x-x-x-x-x-9-9-9-\-----
A-5/7-x-x-x-x-x-x-x-x-x-x-5-x-5-x---5/7-x-x-x-x-x-x-x-x-7-7-7-\-----
E-------------------------------------------------------------------


e-------------------------------------------------------------------
H-------------------------------------------------------------------
G-------------------------------------------------------------------
D-2---p1p0------2---p1p0------2---p1p0------------------------------
A---------2p1p0---------2p1p0---------2p1p0-2-----------------------
E-------------------------------------------0-----------------------