A következő címkéjű bejegyzések mutatása: gitár szóló. Összes bejegyzés megjelenítése
A következő címkéjű bejegyzések mutatása: gitár szóló. Összes bejegyzés megjelenítése

20121112

GITANO SEMMI NEM ELÉG TAB



Refr/intro

e-4-------4-------6-------4-------4-------4-------6-------4---------
H-5-------4-------8-------4-------5-------4-------8-------4---------
G-6-------4-------6-------4-------6-------4-------6-------4---------
D-6-------6-------8-------6-------6-------6-------8-------6---------
A-4-------6-------6-------6-------4-------6-------6-------6---------
E---------4---------------4---------------4---------------4---------


Verse

e-4---------------6---------------4-------6-------4-----------------
H-4---------------6---------------5-------8-------4-----------------
G-4---------------7---------------6-------6-------4-----------------
D-6---------------6---------------6-------8-------6-----------------
A-6---------------8---------------4-------6-------6-----------------
E-4---------------6-------------------------------4-----------------


e-4---------------4---------------4-------4-------6-7-6-7-6-7-6-7-6\
H-5---------------4---------------5-------6-------8-9-8-9-8-9-8-9-8\
G-6---------------4---------------6-------4-------6-7-6-7-6-7-6-7-6\
D-6---------------6---------------6-------6-------8-9-8-9-8-9-8-9-8\
A-4---------------6---------------4-------5-------------------------
E-----------------4-------------------------------------------------


intro

e-------------------------------------------------------------------
H-------------12-14-14(16)---------14p12-14----12-14-12~----14.-----
G-------11h13-------------------------------13----------------------
D-11h13-------------------------------------------------------------
A-------------------------------------------------------------------
E-------------------------------------------------------------------


e-------------------------------------------------------------------
H-14(16)-14-12----12~-----------14(16)-14-12----12~-----------------
G--------------13------13p11-----------------13------13p11----------
D----------------------------13----------------------------13-------
A-------------------------------------------------------------------
E-------------------------------------------------------------------


e-------------------------------------------------------------------
H-------------------------------------------------------------------
G-------------------------------------------------------------------
D-13\11p9-11----9-11-9~---------------------------------------------
A------------11----------11\----------------------------------------
E-------------------------------------------------------------------



e-11h12.--12.--12p11------------------------------------------------
H--------------------14p12-14(16).-----------14--p12----------------
G----------------------------------------------------13~------------
D-------------------------------------------------------------------
A-------------------------------------------------------------------
E-------------------------------------------------------------------


e------------------------------------------14-----------------------
H-12h14---14---14---12h14---12---11---12--------12---11-------------
G---------------------------------------------------------13\-------
D-------------------------------------------------------------------
A-------------------------------------------------------------------
E-------------------------------------------------------------------


e-11h12---12---12---11(12)(11)--------------------------------------
H------------------------------14---12-14(16)---14(16)(14)-12~--\---
G-------------------------------------------------------------------
D-------------------------------------------------------------------
A-------------------------------------------------------------------
E-------------------------------------------------------------------


e-------------------------------------------------------------------
H-12h14---14---14---14-14p12-11~------------------------------------
G---------------------------------13\-------------------------------
D--------------------------------------------------------4h6--------
A-------------------------------------------------------------------
E------------------------------------------------------------4------


Szóló

e-19(21)---19(21)---19(21)---19(21)---19(21)(19)-16-16---19.--------
H-------------------------------------------------------------------
G-------------------------------------------------------------------
D-------------------------------------------------------------------
A-------------------------------------------------------------------
E-------------------------------------------------------------------


e---------------------11--------------------------------------------
H-14(16)(14)-12-12-14----12~--------------------12---14-------------
G-----------------------------13~-\-------/13-----------------------
D-------------------------------------------------------------------
A-------------------------------------------------------------------
E-------------------------------------------------------------------


e-------------------------------------------------------------------
H-14(16)(14)p12--14(16)(14)p12--14(16)(14)p12--14(16)-14.-12.-------
G-------------------------------------------------------------------
D-------------------------------------------------------------------
A-------------------------------------------------------------------
E-------------------------------------------------------------------


e-------------------------------------------------------------------
H-14(16)-14.-12.--14(16)-14.-12.--14(16)-14.-12.--14(16)-14.-12.----
G-------------------------------------------------------------------
D-------------------------------------------------------------------
A-------------------------------------------------------------------
E-------------------------------------------------------------------


e-------------------------------------------------------------------
H-14(16)-14.-12.--14(16)-14.-12.------------------------------------
G-------------------------------------------------------------------
D-------------------------------------------------------------------
A-------------------------------------------------------------------
E-------------------------------------------------------------------


e-21(23)------21(23)------21(23)---21(23)-21(23)--(21)-19-19-----21'
H-------------------------------------------------------------21----
G-------------------------------------------------------------------
D-------------------------------------------------------------------
A-------------------------------------------------------------------
E-------------------------------------------------------------------


Intro/Refr és Verse akkordok

C#m G#m Eb7 G#m

G#m B7 C#m Eb7 G#m  C#m G#m C#m D(szűk) Eb7 E7 Eb7 E7.....



20121108

HBB HOSSZULÁBÚ ASSZONY TAB (INTRO + SZÓLÓ)

Hobo Blues Band - Hosszúlábú Asszony intro és szóló tab az alábbi verzió alapján.


HOBO BLUES BAND HOSSZULÁBÚ ASSZONY TAB

Intro

e-------------------------------------------------------------------
H-------------------------------------------------------------------
G-------------------------------------------------------------------
D-2-2-2-2-2-2-2-2-2-2-2-2--2p0--------------------------------------
A------------------------------2-0h2--------------------------------
E------------------------------------3-0.---------------------------


e----4-----3-----2---0.---------------------------------------------
H-------------------------------------------------------------------
G-/4---4-3---3-2---2-1.---------------------------------------------
D-------------------------2-3--4------------------------------------
A-------------------------0-1--2------------------------------------
E-------------------------------------------------------------------



Szóló

e--------------------17(19)-17.--15-17-15~--------------------------
H-----17.--17~-----------------------------------/17-15~------------
G-/16---------------------------------------------------------------
D-------------------------------------------------------------------
A-------------------------------------------------------------------
E-------------------------------------------------------------------


e---------12-14(15).-14(15)(14)p12----12----------------------------
H-12h14----------------------------15----15(17)---------------------
G-------------------------------------------------------------------
D-------------------------------------------------------------------
A-------------------------------------------------------------------
E-------------------------------------------------------------------


e-15(17)---12---------------------------12--------------------------
H-------------15-12------------------12----15p14p12-----------------
G-------------------12'--------12h13----------------15p14p12-13~----
D------------------------14~----------------------------------------
A-------------------------------------------------------------------
E-------------------------------------------------------------------


e----14(15).-14(15)(14)p12----12----------15(17)--17(19)--15(17)-12.
H-12-----------------------15----15(17)-----------------------------
G-------------------------------------------------------------------
D-------------------------------------------------------------------
A-------------------------------------------------------------------
E-------------------------------------------------------------------


e----------12-------------------------------------------------------
H-------12----15p12-------------------------------------------------
G-12h13-------------15-14p12----14.---12----------------------------
D----------------------------14----------14-------------------------
A---------------------------------------------14~-\----------3---2--
E------------------------------------------------------------1---0--