A következő címkéjű bejegyzések mutatása: gitár tab. Összes bejegyzés megjelenítése
A következő címkéjű bejegyzések mutatása: gitár tab. Összes bejegyzés megjelenítése

20121121

DEÁK BILL ROSSZ VÉR TAB (SZÓLÓ)


Deák Bill Gyula - Rossz Vér gitár szóló tab az alábbi verzió alapján (3:03 - 4:06)


DEÁK BILL ROSSZ VÉR SZÓLÓ TAB

GP5 + GP6 + PDF >>

Szóló

e-----------------------------------------------------------------------
B-----------------------------------------------------------------------
G--------------------------------14(16)-14~~~---------------------------
D---------12-12-14~~~---------------------------------------------------
A------/14--------------------------------------------------------------
E-----------------------------------------------------------------------


e-----------------------------------------------------------------------
B------------------12-12-15~-----------15-15~---15p12-------------------
G------12-14(16)--------------------------------------14(16)-14~~~------
D---14------------------------------------------------------------------
A-----------------------------------------------------------------------
E-----------------------------------------------------------------------


e------12-12h14---------------------------------------------------------
B---12----------15~-----------12-15-15p12----------15-------------------
G----------------------------------------14(16)-12---14(16)-14~---------
D-----------------------------------------------------------------------
A-----------------------------------------------------------------------
E-----------------------------------------------------------------------


e-----------------------------------------------------------------------
B-----------------------------------------------------------------------
G---12h14p12-\11h12p11-\9h11p9-\7h9p7~~~--------------------------------
D-----------------------------------------------------------------------
A-----------------------------------------------------------------------
E-----------------------------------------------------------------------


e-----------------------------------------------------------------------
B-----------------------------------------------------------------------
G--------------------------------------------------12h14~~~-------------
D------7-9-9h10-9-7------------------------------12---------------------
A---10--------------10~------------------10-12/14-----------------------
E-----------------------------------10/12-------------------------------


e----12--------12-------------------------------------------------------
B--12--12-15-15---------------------------12-12-15-15(17)-15------------
G----------------(16)(14)-12h14-12-14(16)-------------------(16)(14)----
D-----------------------------------------------------------------------
A-----------------------------------------------------------------------
E-----------------------------------------------------------------------

Itt bevadul picit...
e------------------------------------------------------------12-15p12---
B---------------12-15-15(17)-15-12----------------------12-15--------15-
G-----12-14(16)-------------------(16)(14)p12--14--12h14----------------
D--14----------------------------------------14--14---------------------
A-----------------------------------------------------------------------
E-----------------------------------------------------------------------


e----12-----------------------------------------------------------------
B--12--15p12-------12-15------------------------------------------------
G-----------14(16)------(16)(14)p12-----12------------------------------
D----------------------------------14p12--14p12-----12------------------
A----------------------------------------------14-12--14p12-------------
E----------------------------------------------------------15-12\10-----


e-----------------------------------------------------------------------
B-----------------------------------------------------------------------
G-----------------12-------14p12-14~~~----------------------------------
D-------------12--------------------------------------------------------
A-----10-/14------------------------------------------------------------
E---12------------------------------------------------------------------


....aztán újra nyugi

e--15-17-17h19~--17h19~~~--------19p17p15-17~-----17h19-17~~~-----------
B-----------------------------------------------------------------------
G-----------------------------------------------------------------------
D-----------------------------------------------------------------------
A-----------------------------------------------------------------------
E-----------------------------------------------------------------------


e----12h14-14---------------------12-12---------------------------------
B--12--------15~--------12-15(17)-------15------------------------------
G-----------------------------------------14(16)---(14)p12--12h14~------
D---------------------------------------------------------14------------
A-----------------------------------------------------------------------
E-----------------------------------------------------------------------


e-----------------------------------------------------------------------
B-----------------------------------------------------------------------
G---12-14(16).----------------------------------------------------------
D-----------------------------------------------------------------------
A-----------------------------------------------------------------------
E-----------------------------------------------------------------------





20121119

MAGNA CUM LAUDE PÁLINKA DAL TAB

Magna Cum Laude - Pálinka Dal akkordok és szóló.


MAGNA CUM LAUDE PÁLINKA DAL TAB

Intro / Verse / refr

e-3---------------3-------------------------------------------------
H-3---------------4--------3----------------------------------------
G-3---------------5--------5----------------------------------------
D-5---- 8x -------5-- 4x --4- 4x -----------------------------------
A-5---------------3--------5----------------------------------------
E-3-----------------------------------------------------------------


Bridge

e-3-------1-------1-------3-------3-------1-------1---0--2----------
H-4-------1-------3-------3-------4-------1-------3---2--1----------
G-5-------2-------3-------3-------5-------2-------3---0--2----------
D-5-------3-------3-------5-------5-------3-------3---2--0----------
A-3-------3-------1-------5-------3-------3-------1---0-------------
E---------1---------------3---------------1-------------------------


De nekem így is megérte....

e-3-------3---------------3---3-----3-------3-------0-------2-------
H-4-------3-------3-------3---3-----4-------3-------2-------1-------
G-5-------3-------5-------3---4-----5-------3-------0-------2-------
D-5-------5-------4-------5---3-----5-------5-------2-------0-------
A-3-------5-------5-------5---5-----3-------5-------0---------------
E---------3---------------3---3-------------3-----------------------


A gitár szóló

e-------------10.---9/10.----15-\-----10.---9/10.---------------8-\-
H-3.--2/3.----11.--10/11.----15-\-----11.--10/11.----8.--7/8.---8-\-
G-3.--2/3.----12.--11/12.----15-\-----12.--11/12.----7.--6/7.---8-\-
D-5.--4/5.-------------------------------------------8.--7/8.-------
A-------------------------------------------------------------------
E-------------------------------------------------------------------


e-3.--2/3.----8.--7/8.---------------11--11--8--8--5--5--3----------
H-4.--3/4.----8.--7/8.----13-\---x-x-10--10--7--7--4--4--3----------
G-5.--4/5.----8.--7/8.----12-\---x-x-11--11--8--8--5--5--3----------
D-------------------------13-\---x-x-10--10--7--7--4--4--5----------
A-------------------------------------------------------------------
E-------------------------------------------------------------------



MAGNA CUM LAUDE VIDÉKI SANZON TAB

A Vidéki Sanzon akkordok a következők:


MAGNA CUM LAUDE VIDÉKI SANZON TAB

Intro

e-3-------3-------0---------------3-------0-------1-----------------
H-3-------5-------1---------------3-------2-------3-----------------
G-3-------3-------2---------------3-------0-------2-----------------
D-3-------5-------3---------------2-------2-------0-----------------
A-5-------3-------3-----------------------0-------------------------
E-3-----------------------------------------------------------------


A szöveg alatt

e-3-3---3-3-3---0-0-0---0-0-0-0-0--3-3---0-0-0---1-1-1---1-1-1-1-1--
H-3-3-x-5-5-5-x-1-1-1-x-1-1-1-1-1--3-3-x-2-2-2-x-3-3-3-x-3-3-3-3-3--
G-3-3-x-3-3-3-x-2-2-2-x-2-2-2-2-2--3-3-x-0-0-0-x-2-2-2-x-2-2-2-2-2--
D-3-3-x-5-5-5-x-3-3-3-x-3-3-3-3-3--2-2-x-2-2-2-x-0-0-0-x-0-0-0-0-0--
A-5-5---3-3-3---3-3-3---3-3-3-3-3--------0-0-0----------------------
E-3-3---------------------------------------------------------------



A pengetés: le-föl le(x)  föl-le-föl le(x)  föl-le-föl le(x)  föl-le-föl-le-föl
                     le-föl le(x)  föl-le-föl le(x)  föl-le-föl le(x)  föl-le-föl-le-föl


20121117

KOWALSKY MEG A VEGA OTTHON, ÉDES OTTHON TAB


Intro/Refr

e---------4-------2---------------0-------2-------4-------2---------
H-4-------5-------2---------------0-------2-------4-------2---------
G-4-------4-------3---------------1-------3-------4-------3---------
D-4-------6-------4---------------2-------4-------6-------4---------
A-2-------4-------4---------------2-------4-------6-------4---------
E-----------------2---------------0-------2-------4-------2---------


e---------4-------2---------------0-------2-------------------------
H-4-------5-------2---------------0-------2-------4-------4---------
G-4-------4-------3---------------1-------3-------4-------6---------
D-4-------6-------4---------------2-------4-------4-------5---------
A-2-------4-------4---------------2-------4-------2-------6---------
E-----------------2---------------0-------2-------------------------


Verse

e-4-------0-------4-------6-------4-------0-------4-------6---------
H-4-------0-------5-------7-------4-------0-------5-------7---------
G-4-------1-------4-------6-------4-------1-------4-------6---------
D-6-------2-------6-------8-------6-------2-------6-------8---------
A-6-------2-------4-------6-------6-------2-------4-------6---------
E-4-------0-----------------------4-------0-------------------------


e-4-------0-------4-------6-------0-------2-------4-------2---------
H-4-------0-------5-------7-------0-------2-------4-------2---------
G-4-------1-------4-------6-------1-------3-------4-------3---------
D-6-------2-------6-------8-------2-------4-------6-------4---------
A-6-------2-------4-------6-------2-------4-------6-------4---------
E-4-------0-----------------------0-------2-------4-------2---------


Instrumentál rész 2:40 körül

e-0---------------4---------------2-----------------------2---------
H-0---------------4---------------2---------------4-------2---------
G-1---------------4---------------3---------------4-------3---------
D-2---------------6---------------4---------------4-------4---------
A-2---------------6---------------4---------------2-------4---------
E-0---------------4---------------2-----------------------2---------


e-0---------------4---------------2---------------------------------
H-0---------------4---------------2---------------------------------
G-1---------------4---------------3---------------------------------
D-2---------------6---------------4---------------------------------
A-2---------------6---------------4---------------------------------
E-0---------------4---------------2---------------------------------


Transzponálás

e---------5-------3---------------1-------3-------5-------3---------
H-5-------6-------3---------------1-------3-------5-------3---------
G-5-------5-------4---------------2-------4-------5-------4---------
D-5-------7-------5---------------3-------5-------7-------5---------
A-3-------5-------5---------------3-------5-------7-------5---------
E-----------------3---------------1-------3-------5-------3---------


e---------5-------3---------------1-------3---------------3---------
H-5-------6-------3---------------1-------3-------5-------3---------
G-5-------5-------4---------------2-------4-------5-------4---------
D-5-------7-------5---------------3-------5-------5-------5---------
A-3-------5-------5---------------3-------5-------3-------5---------
E-----------------3---------------1-------3---------------3---------



20121115

GANXSTA ZOLEE ÉS A KARTEL VATO LOCO TAB (INTRO)



e-------------------------------------------------------------------
H-------------------------------------------------------------------
G-------------------2.----------------------------------------------
D-2-2-2-2.--4.--5.------5-4---2---0-0-0-0.--2.--4.--5.--4-2---0-----
A-------------------------------------------------------------------
E-------------------------------------------------------------------


e-------------------------------------------0-0-0-0.----------------
H-------------------------------------------0-0-0-0.----------------
G-------------------------------------------2-2-2-2.----------------
D-----------0.--2.--4.--2-0-0---------------1-1-1-1.----1h2.--4.----
A-3-3-3-3.--------------------3---2---------------------------------
E-------------------------------------------------------------------



GRINGO SZTÁR PÁLINKA SUNRISE TAB (AKKORDOK)


Refr

e---3---3---1---1---3---3---3---3-----------------------------------
H---4---4---1---1---3---3---4---4-----------------------------------
G---5---5---1---1---3---3---5---5-----------------------------------
D---5---5---3---3---5---5---5---5-----------------------------------
A---3---3---3---3---5---5---3---3-----------------------------------
E-----------1---1---3---3-------------------------------------------


Duma alatt

e----3-------------------------1-----------------3------------------
H----4-------------------------1-----------------3------------------
G----5------- 8x --------------1------ 4x -------3----- 4x ---------
D----5-------------------------3-----------------5------------------
A----3-------------------------3-----------------5------------------
E------------------------------1-----------------3------------------


Bridge

e-------------------------------------------------------------------
H-4---4-x-4-4---4-x-4--1---1-x-1-1---1-x-1-1---1-x-1-3---3---3-x-3-3
G-5---5-x-5-5---5-x-5--1---1-x-1-1---1-x-1-1---1-x-1-3---3---3-x-3-3
D-5---5-x-5-5---5-x-5--3---3-x-3-3---3-x-3-3---3-x-3-3---3---3-x-3-3
A-3---3---3-3---3---3--3---3---3-3---3---3-3---3-x-3----------------
E----------------------1---1---1-1---1---1-1---1-x-1----------------



KISTEHÉN TÁNCZENEKAR SZÁJBER GYEREK TAB


Cm G7 G7 Cm Cm B G# Fm G7


e---3---3---3---3---3---3---3---3---3---3---3---3---3---3---3---3---
H---4---4---4---4---3---3---3---3---3---3---3---3---4---4---4---4---
G---5---5---5---5---4---4---4---4---4---4---4---4---5---5---5---5---
D---5---5---5---5---3---3---3---3---3---3---3---3---5---5---5---5---
A---3---3---3---3---5---5---5---5---5---5---5---5---3---3---3---3---
E-------------------3---3---3---3---3---3---3---3-------------------


e---3---3---6---6---4---4---1---1---3---3---3---3---3---3---3---3---
H---4---4---6---6---4---4---1---1---3---3---3---3---3---3---3---3---
G---5---5---7---7---5---5---1---1---4---4---4---4---4---4---4---4---
D---5---5---8---8---6---6---3---3---3---3---3---3---3---3---3---3---
A---3---3---8---8---6---6---3---3---5---5---5---5---5---5---5---5---
E-----------6---6---4---4---1---1---3---3---3---3---3---3---3---3---



GRINGO SZTÁR TÉLEN-NYÁRON NYÁR TAB


Az akkordok a következők:
Cm G# Eb B/D
Cm G# Eb G/H
Cm G# Eb B


Intro/verse

e-----3-------3-------4-------4-------3-------3---------------------
H-----4---x---4-------4---x---4-------4---x---4-------3---x---3-----
G-----5---x---5-------5---x---5-------3---x---3-------3---x---3-----
D---------x---------------x---------------x-----------3---x---3-----
A-3-------------------------------6---------------5-----------------
E-----------------4-------------------------------------------------


Refr 1  3 4 5 stb

e-----3-------3-------4-------4-------3-------3---------------------
H-----4---x---4-------4---x---4-------4---x---4-------3---x---3-----
G-----5---x---5-------5---x---5-------3---x---3-------4---x---4-----
D---------x---------------x---------------x-----------5---x---5-----
A-3-------------------------------6---------------2-----------------
E-----------------4-------------------------------------------------


e-----3-------3-------4-------4-------3-------3---------------------
H-----4---x---4-------4---x---4-------4---x---4-------6---x---6-----
G-----5---x---5-------5---x---5-------3---x---3-------7---x---7-----
D---------x---------------x---------------x-----------8---x---8-----
A-3-------------------------------6---------------------------------
E-----------------4-------------------------------6-----------------


Duma rész... és refr 2

e-----3-------3-------4-------4-----------------------6-------6-----
H-----4---x---4-------4---x---4-------8---x---8-------6---x---6-----
G-----5---x---5-------5---x---5-------8---x---8-------7---x---7-----
D-----5---x---5-------6---x---6-------8---x---8-------8---x---8-----
A-------------------------------------6-------6---------------------
E-------------------------------------------------------------------


e-----3-------3-------4-------4-----------------------6-------6-----
H-----4---x---4-------4---x---4-------8---x---8-------6---x---6-----
G-----5---x---5-------5---x---5-------8---x---8-------7---x---7-----
D-----5---x---5-------6---x---6-------8---x---8-------8---x---8-----
A-------------------------------------6-------6---------------------
E-------------------------------------------------------------------


e-----3-------3-------4-------4-------------------------------------
H-----4---x---4-------4---x---4-------8---x---8-------3---x---3-----
G-----5---x---5-------5---x---5-------8---x---8-------4---x---4-----
D-----5---x---5-------6---x---6-------8---x---8-------5---x---5-----
A-------------------------------------6-------6-------2-------2-----
E-------------------------------------------------------------------


e-----3-------3-------4-------4-----------------------6-------6-----
H-----4---x---4-------4---x---4-------8---x---8-------6---x---6-----
G-----5---x---5-------5---x---5-------8---x---8-------7---x---7-----
D-----5---x---5-------6---x---6-------8---x---8-------8---x---8-----
A-------------------------------------6-------6---------------------
E-------------------------------------------------------------------



HOOLIGANS JÁTSZOM TAB


Verse

e-0-----------------------------------------------------------------
H-1---------------1-------------1---------------1-------------------
G-0---------------2-------------2-------4-------0-------2---4-------
D-2---------------2-------------3-------5-------2-------3---5-------
A-3---------------0-------------3-------5-------3-------3---5-------
E-------------------------------1-------3---------------1---3-------


Bridge

e-------------------------------------------------------------------
H-------------------------------------------------------------------
G-------------------------------------------------------------------
D-------------------------------------------------------------------
A-0-----------------------3---2---0---------------------------------
E---------1-------3-----------------------1---------3.----3.--3-----


Refr

e-------------------------------------------------------------------
H-------------------------------------------------------------------
G-------------------------------------------------------------------
D-------------------------------------------------------------------
A-3-----------------------3---2---0-----------------------0---------
E-------------------------------------------------------------3-----


e-----1-------3-------0-------0-----1.--1.--1--------3.--3.--3------
H-----1-------3-------0-------1-----1.--1.--1--------3.--3.--3------
G-----2-------4-------0-------2-----2.--2.--2--------4.--4.--4------
D-----3-------5-------2-------2-----3.--3.--3--------5.--5.--5------
A-------------------------0---------3.--3.--3--------5.--5.--5------
E-1-------3-------0-----------------1.--1.--1--------3.--3.--3---4--


2. refr után

e-------------------------------------------------------------------
H-------------------------------------------------------------------
G-0-0-0-0-0-0-0-0-3-3-3-3-3-3-3-3-----------------------------------
D-2-2-2-2-2-2-2-2-2-2-2-2-2-2-2-2-----------------------------------
A-3-3-3-3-3-3-3-3-3-3-3-3-3-3-3-3-----------------------------------
E-------------------------------------------------------------------


e-1---------------0---------------1---------------0-----------------
H-1---------------1---------------1---------------1-----------------
G-2---------------0---------------2---------------0-----------------
D-3---------------2---------------3---------------2-----------------
A-3---------------3---------------3---------------3-----------------
E-1-------------------------------1---------------------------------


e-1---------------0-------0-------1---------------3-----------------
H-1---------------1-------1-------1---------------3-----------------
G-2---------------0-------2-------2---------------4-----------------
D-3---------------2-------2-------3---------------5-----------------
A-3---------------3-------0-------3---------------5-----------------
E-1-------------------------------1---------------3-----------------


Szóló

e-------------------------------------------------------------------
H-------------------------------------------------------------------
G-------------------------------0-0---0---2-------------------------
D-------5-------3p2-3---2-----2-----2-------------------------------
A-3-----------------------3-----------------------------------------
E-------------------------------------------------------------------


e-------------------------------------------------------------------
H------------------------------/10-8--------------------------------
G------------------------------------9---9---7-9-10--9--7------7~---
D-------5-------3p2-3---2----------------------------------10-------
A-0-----------------------3-----------------------------------------
E-------------------------------------------------------------------


e-------------------------5.---10(12)---10(12)(10)p8---8------------
H-----5h6p5---5-----------5.------------------------10--------------
G-5-7-------7---7-5-4-5---------------------------------------------
D-------------------------------------------------------------------
A-------------------------------------------------------------------
E-------------------------------------------------------------------


e-------5-------5---------------------------------------------------
H-8(10)---8(10)---8---5-8-5---6p5---------8-------------------------
G---------------------------7-----7-5-7/9---------------------------
D-------------------------------------------------------------------
A-------------------------------------------------------------------
E-------------------------------------------------------------------



REPUBLIC HA ITT LENNÉL VELEM TAB (SZÓLÓ)



e---------------------------------------------10.-------------------
H---------------------10-12(13)---12.--10.--------12.---12----------
G-7.--7~--\-----/11.------------------------11--------11---12\11-10.
D-------------------------------------------------------------------
A-------------------------------------------------------------------
E-------------------------------------------------------------------


e-------------------------------------------------------------------
H-------------------------------------------------------------------
G-9p7\6.-7p6----------------7---------------------------------------
D------------7-----7.---------9.---9-7/9-7~-------------------------
A--------------9.------10\9-----------------9-7h8p7\5-7-7(8)(7)p5.--
E-------------------------------------------------------------------


e------------------------------7.-----------------------------------
H---------7-8p7-10.---(12)(10)------10------------------------------
G-9(11)-------------------------------------------------------------
D-------------------------------------------------------------------
A-------------------------------------------------------------------
E-------------------------------------------------------------------


e-10.--10p9------7.------------------------------10-----------------
H-----------10.-----10p7-----------------------10---12.--10~--------
G------------------------10p9p7---9---7h9h10/11---------------------
D-------------------------------9---9-------------------------------
A-------------------------------------------------------------------
E-------------------------------------------------------------------


e-------------------------------------------------------------------
H-8-10-10------10------10-------------------------------------------
G------9(11).--9(11).--9(11)-9-7.-----------------------------------
D-----------------------------------9.-7.---------------------------
A-----------------------------------------9\7--5-7(8).-7.-5---5~----
E-----------------------------------------------------------7----7\-


e----------------17.-------------------14-17.-16.-15p14--14-------14
H----15.-17(19).----(19)(17)p15---15-17----------------17-------15--
G-/16---------------------------16-------------------------14-16----
D-------------------------------------------------------------------
A-------------------------------------------------------------------
E-------------------------------------------------------------------


e--------14---------------------------------------------------------
H------15-----------------------------------------------------------
G-14-16-------------------------------------------------------------
D-------------------------------------------------------------------
A-------------------------------------------------------------------
E-------------------------------------------------------------------



20121113

GANXSTA ZOLEE VALÓ VILÁG TAB


(Fender Stratocaster, neck pick-up)

  
e--------5----------------------------1-----------------------------
H--------5------5h6p5h6p5-x-----------1-----------------------------
G-5------5------5---------x--2--------2------------5----------------
D-7------7------5---------x--3--------3-------/7-------5---\--------
A-7--------------------------3--------------------------------------
E-5--------------------------1--------------------------------------



20121112

OSSIAN TÖBBET ÉR MINDENNÉL TAB (INTRO)



(Half step down tuning)

 
eb-1----------3---1---0-------1----------3---1---0------------------
Hb-3---------3------------3.--3---------3------------3.-------------
Gb-2--------2-----------------2--------2----------------------------
Db-0--------------------------0-------------------------------------
Ab------------------------------------------------------------------
Eb------------------------------------------------------------------


eb-0----------------------------------0-------------------0---------
Hb-1----------3---1---0-----------1-----------0---3-----------------
Gb-2---------2------------0---2-----------0-----------0-------------
Db-2--------2-------------------------------------------------------
Ab-0----------------------------------------------------------------
Eb------------------------------------------------------------------


eb-1----------3---1---0-------1----------3---1---0------------------
Hb-3---------3------------3.--3---------3------------3.-------------
Gb-2--------2-----------------2--------2----------------------------
Db-0--------------------------0-------------------------------------
Ab------------------------------------------------------------------
Eb------------------------------------------------------------------


eb-0--------------------------3-------------------------------------
Hb-1----------3---1---0-------0-------------------------------------
Gb-2---------2------------2---0-------------------------------------
Db-2--------2-----------------0-------------------------------------
Ab-0--------------------------2-------------------------------------
Eb----------------------------3-------------------------------------



GITANO SEMMI NEM ELÉG TAB



Refr/intro

e-4-------4-------6-------4-------4-------4-------6-------4---------
H-5-------4-------8-------4-------5-------4-------8-------4---------
G-6-------4-------6-------4-------6-------4-------6-------4---------
D-6-------6-------8-------6-------6-------6-------8-------6---------
A-4-------6-------6-------6-------4-------6-------6-------6---------
E---------4---------------4---------------4---------------4---------


Verse

e-4---------------6---------------4-------6-------4-----------------
H-4---------------6---------------5-------8-------4-----------------
G-4---------------7---------------6-------6-------4-----------------
D-6---------------6---------------6-------8-------6-----------------
A-6---------------8---------------4-------6-------6-----------------
E-4---------------6-------------------------------4-----------------


e-4---------------4---------------4-------4-------6-7-6-7-6-7-6-7-6\
H-5---------------4---------------5-------6-------8-9-8-9-8-9-8-9-8\
G-6---------------4---------------6-------4-------6-7-6-7-6-7-6-7-6\
D-6---------------6---------------6-------6-------8-9-8-9-8-9-8-9-8\
A-4---------------6---------------4-------5-------------------------
E-----------------4-------------------------------------------------


intro

e-------------------------------------------------------------------
H-------------12-14-14(16)---------14p12-14----12-14-12~----14.-----
G-------11h13-------------------------------13----------------------
D-11h13-------------------------------------------------------------
A-------------------------------------------------------------------
E-------------------------------------------------------------------


e-------------------------------------------------------------------
H-14(16)-14-12----12~-----------14(16)-14-12----12~-----------------
G--------------13------13p11-----------------13------13p11----------
D----------------------------13----------------------------13-------
A-------------------------------------------------------------------
E-------------------------------------------------------------------


e-------------------------------------------------------------------
H-------------------------------------------------------------------
G-------------------------------------------------------------------
D-13\11p9-11----9-11-9~---------------------------------------------
A------------11----------11\----------------------------------------
E-------------------------------------------------------------------



e-11h12.--12.--12p11------------------------------------------------
H--------------------14p12-14(16).-----------14--p12----------------
G----------------------------------------------------13~------------
D-------------------------------------------------------------------
A-------------------------------------------------------------------
E-------------------------------------------------------------------


e------------------------------------------14-----------------------
H-12h14---14---14---12h14---12---11---12--------12---11-------------
G---------------------------------------------------------13\-------
D-------------------------------------------------------------------
A-------------------------------------------------------------------
E-------------------------------------------------------------------


e-11h12---12---12---11(12)(11)--------------------------------------
H------------------------------14---12-14(16)---14(16)(14)-12~--\---
G-------------------------------------------------------------------
D-------------------------------------------------------------------
A-------------------------------------------------------------------
E-------------------------------------------------------------------


e-------------------------------------------------------------------
H-12h14---14---14---14-14p12-11~------------------------------------
G---------------------------------13\-------------------------------
D--------------------------------------------------------4h6--------
A-------------------------------------------------------------------
E------------------------------------------------------------4------


Szóló

e-19(21)---19(21)---19(21)---19(21)---19(21)(19)-16-16---19.--------
H-------------------------------------------------------------------
G-------------------------------------------------------------------
D-------------------------------------------------------------------
A-------------------------------------------------------------------
E-------------------------------------------------------------------


e---------------------11--------------------------------------------
H-14(16)(14)-12-12-14----12~--------------------12---14-------------
G-----------------------------13~-\-------/13-----------------------
D-------------------------------------------------------------------
A-------------------------------------------------------------------
E-------------------------------------------------------------------


e-------------------------------------------------------------------
H-14(16)(14)p12--14(16)(14)p12--14(16)(14)p12--14(16)-14.-12.-------
G-------------------------------------------------------------------
D-------------------------------------------------------------------
A-------------------------------------------------------------------
E-------------------------------------------------------------------


e-------------------------------------------------------------------
H-14(16)-14.-12.--14(16)-14.-12.--14(16)-14.-12.--14(16)-14.-12.----
G-------------------------------------------------------------------
D-------------------------------------------------------------------
A-------------------------------------------------------------------
E-------------------------------------------------------------------


e-------------------------------------------------------------------
H-14(16)-14.-12.--14(16)-14.-12.------------------------------------
G-------------------------------------------------------------------
D-------------------------------------------------------------------
A-------------------------------------------------------------------
E-------------------------------------------------------------------


e-21(23)------21(23)------21(23)---21(23)-21(23)--(21)-19-19-----21'
H-------------------------------------------------------------21----
G-------------------------------------------------------------------
D-------------------------------------------------------------------
A-------------------------------------------------------------------
E-------------------------------------------------------------------


Intro/Refr és Verse akkordok

C#m G#m Eb7 G#m

G#m B7 C#m Eb7 G#m  C#m G#m C#m D(szűk) Eb7 E7 Eb7 E7.....



20121106

BIKINI KÖZELI HELYEKEN TAB (SZÓLÓ)



BIKINI KÖZELI HELYEKEN SZÓLÓ TAB

Akusztikus gitár

e-------------------------------------------------------------------
H-----------------------------0-------------------------------------
G------------0------------0-2-----2---0-----------------------------
D-2------4-------4----------------------4-2-------------------------
A-------------------------------------------------------------------
E-------------------------------------------------------------------


e-------------------------------------------------------------------
H-------------0-------------------0---1-----------------------------
G-------2-----------2h4p2-0---2---------2-4~------------------------
D-2-4-5---5---------------------------------------------------------
A-------------------------------------------------------------------
E-------------------------------------------------------------------


Szólógitár

e-12---15---17---17(19)\-/(19)---17(19)---(19)-(19)\(17)p15-17~-----
H-------------------------------------------------------------------
G-------------------------------------------------------------------
D-------------------------------------------------------------------
A-------------------------------------------------------------------
E-------------------------------------------------------------------


e-22(24)\-/(24)---22(24)---22---19h22-19----------------------------
H-------------------------------------------------------------------
G-------------------------------------------------------------------
D-------------------------------------------------------------------
A-------------------------------------------------------------------
E-------------------------------------------------------------------


e-------5--------------7-8------------------------------------------
H-5-7-8---8~---/8---10-----10~---8(10)---8-7h8p7--------------------
G-----------------------------------------------8---8/10~-----------
D-------------------------------------------------------------------
A-------------------------------------------------------------------
E-------------------------------------------------------------------



EDDA A KÖR TAB (SZÓLÓ)



e-15(17)-15(17)\(15)/(17)\(15)/(17)~--------------------------------
H-------------------------------------------------------------------
G-------------------------------------------------------------------
D-------------------------------------------------------------------
A-------------------------------------------------------------------
E-------------------------------------------------------------------


e-15(17)-15-13--12-13----12-----------------------------------------
H---------------------15-----13-15-12-13p12--12~~-------------------
G------------------------------------------14-----------------------
D-------------------------------------------------------------------
A-------------------------------------------------------------------
E-------------------------------------------------------------------


e-------------------------------------------------------------------
H-------------------------------------------------------------------
G-5-7-5-7-7(9)-7-5-4-----------------------------7(9)-7-//-(9)~~~---
D-------------------5~~-------------------5~------------------------
A-----------------------------3---3-7--3-5--------------------------
E-------------------------3-5---5-----------------------------------
  x x x x                 x x x x   x  x


e-------------------------------------------------------------------
H-----8------------------------8-10p8--8~--5------------------------
G-7(9)--7(9)\(7)-5-4-5-4-------------9-------7-7p5--5---5-----------
D-----------------------5~~-----------------------7---7-------------
A-------------------------------------------------------------------
E-------------------------------------------------------------------


e-------------------------------------------------------------------
H-------------------------------------------------------------------
G-7(9)-7-5-4-5-4----------------------------------------------------
D---------------5~~--------------------5~---------------------------
A--------------------------3-3/5---5--5-----------------------------
E----------------------3-5-------5--8-------------------------------
                       x x       x  x  

e-------------------------------------------------------------------
H----------------------------13(15)-13-12----12---------------------
G-7(9)-7-5-4-5-4-----------12-------------14----12-14~~-------------
D---------------5~~-------------------------------------------------
A-------------------------------------------------------------------
E-------------------------------------------------------------------
                           x

e--------------12-13----12------------------------------------------
H-12--12-13-15-------15----13-15-12-13p12--12~----8-10p8---8--------
G----------------------------------------14-------------9----9-7-5~~
D-------------------------------------------------------------------
A-------------------------------------------------------------------
E-------------------------------------------------------------------


e-------------------------------------------------------------------
H-----8---------------------------------------------10~~--------\---
G-7(9)--7(9)\(7)-5-4--5-4-------------------------------------------
D------------------------5~~-----------------5~---------------------
A-----------------------------------3-5-7-3-5-----------------------
E-------------------------------3-5---------------------------------
                                    x     x



HOOLIGANS MENJ TOVÁBB TAB



verse

  Em      G       Em      G   D    Em      G       Em      G   D   

e-3-------3-------3-------3---2----3-------3-------3-------3---2----
H-0-------0-------0-------0---3----0-------0-------0-------0---3----
G-0-------0-------0-------0---2----0-------0-------0-------0---2----
D-2-------0-------2-------0---0----2-------0-------2-------0---0----
A-2-------2-------2-------2---0----2-------2-------2-------2---0----
E-0-------3-------0-------3--------0-------3-------0-------3--------


Bridge

  C       Em      C       Em      C       Em      A       D7

e-3-------3-------3-------3-------3-------3-------0-------2---------
H-1-------0-------1-------0-------1-------0-------2-------1---------
G-0-------0-------0-------0-------0-------0-------2-------2---------
D-2-------2-------2-------2-------2-------2-------2-------0---------
A-3-------2-------3-------2-------3-------2-------0-------0---------
E---------0---------------0---------------0-------------------------


Refr

  G   Hm  C   D   G   Hm  C   D   G   H   C   D   G   Hm  C   D  

e-3---2---0---2---3---2---0---2---3---2---0---2---3---2---0---2-----
H-0---3---1---3---0---3---1---3---0---4---1---3---0---3---1---3-----
G-0---4---0---2---0---4---0---2---0---4---0---2---0---4---0---2-----
D-0---4---2---0---0---4---2---0---0---4---2---0---0---4---2---0-----
A-2---2---3---0---2---2---3---0---2---2---3---0---2---2---3---0-----
E-3---------------3---------------3---------------3-----------------


Szóló

e-------------------------------------------------------------------
H--------------------------------------15(17)------15~--------------
G-/12---12---12-12-11.--12.-12h14-----------------------------------
D-------------------------------------------------------------------
A-------------------------------------------------------------------
E-------------------------------------------------------------------


e----15---15--15--15--15--15.--17(19)-------------------------------
H-/15--15---15--15--15--15----------------15(17)--15(17).--15-------
G-------------------------------------------------------------------
D-------------------------------------------------------------------
A-------------------------------------------------------------------
E-------------------------------------------------------------------


e------------------11--------11-11-11h12----------------------------
H-------------12----------------------------------------------------
G-/12p11-12---------------------------------------------------------
D-------------------------------------------------------------------
A-------------------------------------------------------------------
E-------------------------------------------------------------------


e-------------------------------------------------------------------
H-/15------15-------------------------------------------------------
G-/14(16)--14(16)--14(16)(14)-12----------------12-12---------------
D----------------------------------------12h14----------------------
A-------------------------------------------------------------------
E-------------------------------------------------------------------


e--------------12--------12---------------------15------------------
H-----------------------------------------------15-15---------------
G-12-12-14(16)----14(16)----14(16)-------14(16)-------(16)(14)--12--
D-------------------------------------------------------------------
A-------------------------------------------------------------------
E-------------------------------------------------------------------



EDDA ELHAGYOM A VÁROST TAB (SZÓLÓ)



e-------------------------------------------------------------------
H-------------------------------------------------------------------
G-2(3)(2)-0----------------0-2(3)(2)-0------------------------------
D----------3/5~-----------------------3/5~--------------------------
A-------------------------------------------------------------------
E-------------------------------------------------------------------


e-------------------------------------------------------------------
H-------------------------------------------------------------------
G-0.-3.-5(7).-5.-3(5)(3)(5)(3)(5)(3)~~------------------------------
D-------------------------------------------------------------------
A-------------------------------------------------------------------
E-------------------------------------------------------------------


e-------------------------------------------------------------------
H-----------3''''(5)~~-----------------5'''(7)~--5(7)-5(7)~~----/---
G-2(3)(2)-0----------------0-2(3)(2)-0------------------------------
D-------------------------------------------------------------------
A-------------------------------------------------------------------
E-------------------------------------------------------------------


e---------10---------------------------------8----------------------
H-10''(12)---(12)(10)-8.--10.-8-8-8~--\-----------------------------
G------------------------------9-9--------/9--9~--------------------
D-------------------------------------------------------------------
A-------------------------------------------------------------------
E-------------------------------------------------------------------


e------------6------------------------------------------------------
H---4.-(8)(6)--(8)(6)-4---------------------------/3----------------
G-5.-----------------------------2(3)(2)-0-2-----0--4~---2.-0~------
D--------------------------------------------2-0--------------------
A-------------------------------------------------------------------
E-------------------------------------------------------------------



fillek
       0:50                                        0:57
e---------------------------10--------------------------------------
H---(12)\(10)-10.-8.--10(12)----------------(17)(15)-12-------------
G-------------------------------------------------------14(16)-14~--
D-------------------------------------------------------------------
A-------------------------------------------------------------------
E-------------------------------------------------------------------

        1:04                         1:49                    
e-10----------------------------------------------------------------
H---(12)(10)-8~-----------------------------------------------------
G-------------------------------(16)(14)-12.-12~--------------------
D-------------------------------------------------------------------
A-------------------------------------------------------------------
E-------------------------------------------------------------------


      1:54
e-------------------------------------------------------------------
H-------------------------------------------------------------------
G-(7)(5)p3.-5.-3.-5'''(7)~~-----------------------------------------
D-------------------------------------------------------------------
A-------------------------------------------------------------------
E-------------------------------------------------------------------



      2:01                                  2:15               
e--------------10---------------------------------------------------
H-----8--10(12)--(12)(10)-8-8~--------------------------------------
G-7h9----------------------9--------------3-------------------------
D------------------------------------------5~-----------------------
A-------------------------------------------------------------------
E-------------------------------------------------------------------


      2:23                                     2:28
e-------------------------------------------------------------------
H-----------------------------------15-12---------------------------
G-(7)(5)-3-5'''(7)------------------------14(16)(14)-12.-12~--------
D-------------------------------------------------------------------
A-------------------------------------------------------------------
E-------------------------------------------------------------------



DEÁK BILL FELSZARVAZOTTAK BALLADÁJA TAB



intro

e-------------------------------------------------------------------
H-------------------------------------------------------------------
G-------------5---------------------3-------------------------------
D-6/7---7-9-7-7---7-9---6\5---5-7-5-5---5---------------------------
A-4/5---5-5-5-----5-5---4\3---3-3-3-----3---------------------------
E-----------------------------------------6'--3---------------------


e-----3-----------------------------------------3-------------------
H-2/3---6-3---------------3-------------------3---6/8---------------
G-----------6-5p3---5-3h4---3(4)----------3h4-----------------------
D-----------------5-------------------------------------------------
A--------------------------------5-5--------------------------------
E-------------------------------------------------------------------


verse

e-------------------------------------------------------------------
H-------------------------------------------------------------------
G----------4\3---------4/5-----4\3----------------------------------
D----------3\2---------3/4-----3\2----------------------------------
A----------4\3---------4/5-----4\3----------------------------------
E-------------------------------------------------------------------


e-----3-----------------------------------------3-------------------
H-2/3---6-3---------------3-------------------3---6/8---------------
G-----------6-5p3---5-3h4---3(4)----------3h4-----------------------
D-----------------5-------------------------------------------------
A--------------------------------5-5--------------------------------
E-------------------------------------------------------------------


e-------------------------------------------------------------------
H-------------------------------------------------------------------
G----------4\3---------4/5-----4\3----------------------------------
D----------3\2---------3/4-----3\2----------------------------------
A----------4\3---------4/5-----4\3----------------------------------
E-------------------------------------------------------------------


e-----3-----------------------------------------5-5-5-6-6-6-7-7-7---
H-2/3---6-3---------------3-------------------3-4-4-4-5-5-5-6-6-6---
G-----------6-5p3---5-3h4---3(4)----------3h4---5-5-5-6-6-6-7-7-7---
D-----------------5-------------------------------------------------
A--------------------------------5-5--------------------------------
E-------------------------------------------------------------------


refr

e-------------------------------------------------------------------
H-------------------------------------------------------------------
G---------0-3'--0-2---0-------0-3-----------------------------------
D-----2-------------------1h2-------------0-3'--0-2---0-------0-5---
A-3-----------------------------------2-------------------1h2-------
E---------------------------------3---------------------------------


e------------------------------------------------------------3------
H----------------------------------------------------------3---6/8--
G-------------------------------2----------------------3h4----------
D---------2-5'--2-4---2-------2-------------------------------------
A-----4-------------------3h4-----5---------------------------------
E-5-----------------------------------------------------------------


szóló

e---------3---3-----3---3---3---3---3-----3---3---3-----------------
H-------3-----------------------------------------------------------
G-3h4---------------------------------------------------------------
D-------------------------------------------------------------------
A-------------------------------------------------------------------
E-------------------------------------------------------------------


e-(6)(5)p3---5---3--------------------------------------------------
H----------5---x----------------------------------------------------
G----------------------------------------------3---5-(6)(5)p3-5-3h4-
D------------------------------------3-3---3h5---------------5-x---5
A---------------------/3-1---3-3/5----------------------------------
E-------------------------------------------------------------------


e-----3-------------------------------------------------------------
H-2/3---6-3---------------3-----------------------------------------
G-----------6-5p3---5-3h4---3(4)------------------------------------
D-----------------5-------------------------------------------------
A--------------------------------5-5--------------------------------
E-------------------------------------------------------------------


Herfli alatt

e-------------------------------------------------------------------
H-------------------------------------------------------------------
G-------------------------------------------------------------------
D-------------------------------------------------------------------
A-5---5-7---5-5---5-7---5-5---5-7---5-5---5-7---5-------------------
E-3---3-3---3-3---3-3---3-3---3-3---3-3---3-3---3-------------------
  x   x x   x x   x x   x x   x x   x x   x x   x

e-------------------------------------------------------------------
H-------------------------------------------------------------------
G-------------3-----------------------3-----------------------------
D-5---5-7---5-5---5-7---5-5---5-7---5-5---5-7-----------------------
A-3---3-3---3-----3-3---3-3---3-3---3-----3-3-----------------------
E-------------------------------------------------------------------
  x   x x   x     x x     x   x x   x     x x

e-------------------------------------------------------------------
H-------------------------------------------------------------------
G-------------------------------------------------------------------
D-6/7--------6\5----------------------------------------------------
A-4/5--------4\3--------4/5-----------------------------------------
E-----------------------2/3-----------------------------------------


e-----3-----------------------------------------3-------------------
H-2/3---6-3---------------3-------------------3---6/8---------------
G-----------6-5p3---5-3h4---3(4)----------3h4-----------------------
D-----------------5-------------------------------------------------
A--------------------------------5-5--------------------------------
E-------------------------------------------------------------------


4.refrtől

e-------------------------------------------------------------------
H-------------------------------------------------------------------
G---------0-3'--0-2---0-------0-3-----------------------------------
D-----2-------------------1h2-------------0-3'--0-2---0-------0-5---
A-3-----------------------------------2-------------------1h2-------
E---------------------------------3---------------------------------


e-------------------------------------------------------------------
H-------------------------------------------------------------------
G-------------------------------2---------2-5'--2-4---2-------------
D---------2-5'--2-4---2-------2-------4-----------------------------
A-----4-------------------3h4-----5-----------------------4---------
E-5-----------------------------------------------------------------


Vége

e-----3-------------------------------------------------------------
H-2/3---6-3---------------3-----------------------------------------
G-----------6-5p3---5-3h4---3---4-----------------------------------
D-----------------5---------2---3-----------------------------------
A-------------------------------------------------------------------
E-------------------------------------------------------------------



PIRAMIS CSAK RÖVID IDŐ TAB (MAIN RIFF)



e-------------------------------------------------------------------
H-------------------------------------------------------------------
G-------------------------------------------------------------------
D---2---p1p0-----------------------------------------2-0h1h2--------
A-----------2p1p0--------1'------3p2-3p2-1'-----2------------2------
E-0---------------3'---0------------------------0------------0------
  x                    x         


e-------------------------------------------------------------------
H-------------------------------------------------------------------
G-------------------------------------------------------------------
D---2---p1p0-----------------------------------------2-0h1h2--------
A-----------2p1p0--------1'------3p2-3p2-1'-----2------------2------
E-0---------------3'---0------------------------0------------0------
  x                    x         


e-------------------------------------------------------------------
H-------------------------------------------------------------------
G-------------------------------------------------------------------
D-9---x-x-x-x-x-x-x-x-x-x-9-9-9-9--7/9-x-x-x-x-x-x-x-x-x-x-7-x-7-x--
A-7---x-x-x-x-x-x-x-x-x-x-7-7-7-7--5/7-x-x-x-x-x-x-x-x-x-x-5-x-5-x--
E-------------------------------------------------------------------


e-------------------------------------------------------------------
H-------------------------------------------------------------------
G-------------------------------------------------------------------
D-7/9-x-x-x-x-x-x-x-x-x-x-7-x-7-x---7/9-x-x-x-x-x-x-x-x-9-9-9-\-----
A-5/7-x-x-x-x-x-x-x-x-x-x-5-x-5-x---5/7-x-x-x-x-x-x-x-x-7-7-7-\-----
E-------------------------------------------------------------------


e-------------------------------------------------------------------
H-------------------------------------------------------------------
G-------------------------------------------------------------------
D-2---p1p0------2---p1p0------2---p1p0------------------------------
A---------2p1p0---------2p1p0---------2p1p0-2-----------------------
E-------------------------------------------0-----------------------



20120917

REPUBLIC - NEKED KÖNNYŰ LEHET TAB (SZÓLÓ)



e---------------------------------------------8---11---8------------
H----------------9------9------9---------9h11--------------11-------
G-8-------8-10-------10-----10--------------------------------------
D-------------------------------------------------------------------
A-------------------------------------------------------------------
E-------------------------------------------------------------------


e-----------------------------------11--------11--------11--------11
H-9(11)(9)-------------------11(13)----11(13)----11(13)----11(13)---
G----------10-8(10)(8)~~--------------------------------------------
D-------------------------------------------------------------------
A-------------------------------------------------------------------
E-------------------------------------------------------------------


e--------11---------------------------------------------------------
H-11(13)----(13)(11)-9-11----9---11-9-9~----------------------------
G-------------------------10----------------------------------------
D-------------------------------------------------------------------
A-------------------------------------------------------------------
E-------------------------------------------------------------------


e-11~-------11-13/16-16~--------16-13-11-16----11-------------------
H-------------------------------------------13----13(14)(13)--------
G-------------------------------------------------------------------
D-------------------------------------------------------------------
A-------------------------------------------------------------------
E-------------------------------------------------------------------


e-------------------------------------------------------------------
H-------------------------------------------------------------------
G-13(15)(13)--------------------------------------------------------
D------------13(15)(13)~~-------------------------------------------
A-------------------------------------------------------------------
E-------------------------------------------------------------------


e-16p13p11-16p13p11-16p13p11--16p13p11-16p13p11-16p13p11------------
H-------------------------------------------------------------------
G-------------------------------------------------------------------
D-------------------------------------------------------------------
A-------------------------------------------------------------------
E-------------------------------------------------------------------


e-16p13p11-16p13p11-16p13p11--16p13p11-16p13p11-16p13p11------------
H-------------------------------------------------------------------
G-------------------------------------------------------------------
D-------------------------------------------------------------------
A-------------------------------------------------------------------
E-------------------------------------------------------------------


e-16p13p11-16p13p11-16p13p11--16p13p11-16p13p11-16p13p11------------
H-------------------------------------------------------------------
G-------------------------------------------------------------------
D-------------------------------------------------------------------
A-------------------------------------------------------------------
E-------------------------------------------------------------------


e-16p13p11-16p13p11-16p13p11--16p13p11-16p13p11-16p13p11------------
H-------------------------------------------------------------------
G-------------------------------------------------------------------
D-------------------------------------------------------------------
A-------------------------------------------------------------------
E-------------------------------------------------------------------


e-16---13-----------------------------------------------------------
H-----------16---13-------------------------------------------------
G---------------------15(17)---15(17)---15~-------------------------
D-------------------------------------------------------------------
A-------------------------------------------------------------------
E-------------------------------------------------------------------