A következő címkéjű bejegyzések mutatása: gitárkotta. Összes bejegyzés megjelenítése
A következő címkéjű bejegyzések mutatása: gitárkotta. Összes bejegyzés megjelenítése

20121123

BON BON VÁLASSZ ENGEM TAB (SZÓLÓ)


e-------------------------------------------------------------------
H-------------------------------------------------------------------
G------8-9-11/13.---8.--9--------9-11p9\8---------------------------
D-9/11--------------9.--11----------------11-9----11----------------
A----------------------------------------------11-------------------
E-------------------------------------------------------------------


e-------------------9--9----9.---7.---------------------------------
H----------------12-10-10.--10.--9.--7h9p7--------------------------
G------8-9-11/13---------------------------9------------------------
D-9/11--------------------------------------------------------------
A-------------------------------------------------------------------
E-------------------------------------------------------------------


e-12---------------12------11-\--------------------------9----------
H-12h14---p12------12h14.--12-\---------------------12.--10---------
G-------------14.-----------------------8-9-11/13-------------------
D----------------------------------9/11-----------------------------
A-------------------------------------------------------------------
E-------------------------------------------------------------------


e-14h15p14p12-12.-----12--------------------------------------------
H------------------14.-----14p12------------------------------------
G--------------------------------13\11-9----------------------------
D-------------------------------------------------------------------
A-------------------------------------------------------------------
E-------------------------------------------------------------------


e-------------12-9h12p9---------------------------------------------
H-9-10.--10-------------10------------------------------------------
G-9-11.--11----------------9\6--------------------------------------
D------------------------------7------------------------------------
A-------------------------------------------------------------------
E-------------------------------------------------------------------


e-12---------------12-----------------------------------------------
H-12h14---p12------12h14.--12-----12p10p9---------------------------
G-------------14.------------------------11p9p8---------------------
D----------------------------------------------11p9-----------------
A-------------------------------------------------------------------
E-------------------------------------------------------------------



20121122

HOBO BLUES BAND KŐBÁNYA BLUES TAB


Intro

e-------------------------------------------------------------------
H-------------------------------------------------------------------
G-----------------------------------------0-------------------------
D-2.--2.--2------------2.--2.--2------0h2---------------------------
A-0.--0.--0------------0.--0.--0------------------------------------
E---------------0-3'------------------------------------------------


e-------------------------------------------------------------------
H-------------------------------------------------------------------
G-------------------------------------------------------------------
D-2.--2.--2--------------/7---5------5------------------------------
A-0.--0.--0-----------------------5h7--5h7--5-3---------------------
E---------------0-3'------------------------------------------------


Verse

e-------------------------------------------------------------------
H-------------------------------------------------------------------
G-----------------------------------------0-------------------------
D-2.--2.--2------------2.--2.--2------0h2--0------------------------
A-0.--0.--0------------0.--0.--0------------------------------------
E---------------0-3'------------------------------------------------


e-------------------------------------------------------------------
H-------------------------------------------------------------------
G-----------------------------------------0-------------------------
D-2.--2.--2------------2.--2.--2------0h2---------------------------
A-0.--0.--0------------0.--0.--0------------------------------------
E---------------0-3'------------------------------------------------


e-------------------------------------------------------------------
H-------------------------------------------------------------------
G-----------------------------------------0-------------------------
D-2.--2.--2------------2.--2.--2------0h2--0------------------------
A-0.--0.--0------------0.--0.--0------------------------------------
E---------------0-3'------------------------------------------------


e-------------------------------------------------------------------
H-------------------------------------------------------------------
G-------------------------------------------------------------------
D-2.--2.--2--------------/7---5------5------------------------------
A-0.--0.--0-----------------------5h7--5h7--5-3---------------------
E---------------0-3'------------------------------------------------


Refr

e-------------------------------------------------------------------
H-------------------------------------------------------------------
G-------------------------------------------------------------------
D-5.--5.--7-------3.--3.--2--------------------   3x   -------------
A-3.--3.--5-------1.--1.--0-----0-2---------------------------------
E-------------------------------------------------------------------


e-------------------------------------------------------------------
H------------------------------(8)----------------------------------
G------------------------------(7)----------------------------------
D-5.--5.--7-------3.--3.-------(6)----------------------------------
A-3.--3.--5-------1.--1.--2----(7)----------------------------------
E-------------------------0-----------------------------------------


Szóló

e-------------------------------------------------------------------
H-7(8).---7.---5~---------------------------------------------------
G-7(8).---7.---5~------------5h6-------------5~~--------------------
D--------------------------7-----7-5-7~--7~-------------------------
A-------------------------------------------------------------------
E-------------------------------------------------------------------


e-------------------------------------------------------------------
H-7(8).---7.---5~---------------------------------------------------
G-7(8).---7.---5~------------5h6------------------------------------
D--------------------------7-----7-5-7~-----7~--5------5------5-----
A---------------------------------------------------5h7--5-5h7--5---
E-------------------------------------------------------------------


e-------------------------------------------------------------------
H-7(8).---7.---5~---------------------------------------------------
G-7(8).---7.---5~------------5h6-------------5~~-/------------------
D--------------------------7-----7-5-7~--7~-------------------------
A-------------------------------------------------------------------
E-------------------------------------------------------------------


e-14(15).---14.-----------------------------------------------------
H-15(16).---15.---13~------13h14------------------------------------
G------------------------14-----14-12-14~--12~-------12-------------
D-----------------------------------------------12h14--12h14-12-10\-
A-------------------------------------------------------------------
E-------------------------------------------------------------------



20121121

DEÁK BILL ROSSZ VÉR TAB (SZÓLÓ)


Deák Bill Gyula - Rossz Vér gitár szóló tab az alábbi verzió alapján (3:03 - 4:06)


DEÁK BILL ROSSZ VÉR SZÓLÓ TAB

GP5 + GP6 + PDF >>

Szóló

e-----------------------------------------------------------------------
B-----------------------------------------------------------------------
G--------------------------------14(16)-14~~~---------------------------
D---------12-12-14~~~---------------------------------------------------
A------/14--------------------------------------------------------------
E-----------------------------------------------------------------------


e-----------------------------------------------------------------------
B------------------12-12-15~-----------15-15~---15p12-------------------
G------12-14(16)--------------------------------------14(16)-14~~~------
D---14------------------------------------------------------------------
A-----------------------------------------------------------------------
E-----------------------------------------------------------------------


e------12-12h14---------------------------------------------------------
B---12----------15~-----------12-15-15p12----------15-------------------
G----------------------------------------14(16)-12---14(16)-14~---------
D-----------------------------------------------------------------------
A-----------------------------------------------------------------------
E-----------------------------------------------------------------------


e-----------------------------------------------------------------------
B-----------------------------------------------------------------------
G---12h14p12-\11h12p11-\9h11p9-\7h9p7~~~--------------------------------
D-----------------------------------------------------------------------
A-----------------------------------------------------------------------
E-----------------------------------------------------------------------


e-----------------------------------------------------------------------
B-----------------------------------------------------------------------
G--------------------------------------------------12h14~~~-------------
D------7-9-9h10-9-7------------------------------12---------------------
A---10--------------10~------------------10-12/14-----------------------
E-----------------------------------10/12-------------------------------


e----12--------12-------------------------------------------------------
B--12--12-15-15---------------------------12-12-15-15(17)-15------------
G----------------(16)(14)-12h14-12-14(16)-------------------(16)(14)----
D-----------------------------------------------------------------------
A-----------------------------------------------------------------------
E-----------------------------------------------------------------------

Itt bevadul picit...
e------------------------------------------------------------12-15p12---
B---------------12-15-15(17)-15-12----------------------12-15--------15-
G-----12-14(16)-------------------(16)(14)p12--14--12h14----------------
D--14----------------------------------------14--14---------------------
A-----------------------------------------------------------------------
E-----------------------------------------------------------------------


e----12-----------------------------------------------------------------
B--12--15p12-------12-15------------------------------------------------
G-----------14(16)------(16)(14)p12-----12------------------------------
D----------------------------------14p12--14p12-----12------------------
A----------------------------------------------14-12--14p12-------------
E----------------------------------------------------------15-12\10-----


e-----------------------------------------------------------------------
B-----------------------------------------------------------------------
G-----------------12-------14p12-14~~~----------------------------------
D-------------12--------------------------------------------------------
A-----10-/14------------------------------------------------------------
E---12------------------------------------------------------------------


....aztán újra nyugi

e--15-17-17h19~--17h19~~~--------19p17p15-17~-----17h19-17~~~-----------
B-----------------------------------------------------------------------
G-----------------------------------------------------------------------
D-----------------------------------------------------------------------
A-----------------------------------------------------------------------
E-----------------------------------------------------------------------


e----12h14-14---------------------12-12---------------------------------
B--12--------15~--------12-15(17)-------15------------------------------
G-----------------------------------------14(16)---(14)p12--12h14~------
D---------------------------------------------------------14------------
A-----------------------------------------------------------------------
E-----------------------------------------------------------------------


e-----------------------------------------------------------------------
B-----------------------------------------------------------------------
G---12-14(16).----------------------------------------------------------
D-----------------------------------------------------------------------
A-----------------------------------------------------------------------
E-----------------------------------------------------------------------





20121119

MAGNA CUM LAUDE PÁLINKA DAL TAB

Magna Cum Laude - Pálinka Dal akkordok és szóló.


MAGNA CUM LAUDE PÁLINKA DAL TAB

Intro / Verse / refr

e-3---------------3-------------------------------------------------
H-3---------------4--------3----------------------------------------
G-3---------------5--------5----------------------------------------
D-5---- 8x -------5-- 4x --4- 4x -----------------------------------
A-5---------------3--------5----------------------------------------
E-3-----------------------------------------------------------------


Bridge

e-3-------1-------1-------3-------3-------1-------1---0--2----------
H-4-------1-------3-------3-------4-------1-------3---2--1----------
G-5-------2-------3-------3-------5-------2-------3---0--2----------
D-5-------3-------3-------5-------5-------3-------3---2--0----------
A-3-------3-------1-------5-------3-------3-------1---0-------------
E---------1---------------3---------------1-------------------------


De nekem így is megérte....

e-3-------3---------------3---3-----3-------3-------0-------2-------
H-4-------3-------3-------3---3-----4-------3-------2-------1-------
G-5-------3-------5-------3---4-----5-------3-------0-------2-------
D-5-------5-------4-------5---3-----5-------5-------2-------0-------
A-3-------5-------5-------5---5-----3-------5-------0---------------
E---------3---------------3---3-------------3-----------------------


A gitár szóló

e-------------10.---9/10.----15-\-----10.---9/10.---------------8-\-
H-3.--2/3.----11.--10/11.----15-\-----11.--10/11.----8.--7/8.---8-\-
G-3.--2/3.----12.--11/12.----15-\-----12.--11/12.----7.--6/7.---8-\-
D-5.--4/5.-------------------------------------------8.--7/8.-------
A-------------------------------------------------------------------
E-------------------------------------------------------------------


e-3.--2/3.----8.--7/8.---------------11--11--8--8--5--5--3----------
H-4.--3/4.----8.--7/8.----13-\---x-x-10--10--7--7--4--4--3----------
G-5.--4/5.----8.--7/8.----12-\---x-x-11--11--8--8--5--5--3----------
D-------------------------13-\---x-x-10--10--7--7--4--4--5----------
A-------------------------------------------------------------------
E-------------------------------------------------------------------



MAGNA CUM LAUDE VIDÉKI SANZON TAB

A Vidéki Sanzon akkordok a következők:


MAGNA CUM LAUDE VIDÉKI SANZON TAB

Intro

e-3-------3-------0---------------3-------0-------1-----------------
H-3-------5-------1---------------3-------2-------3-----------------
G-3-------3-------2---------------3-------0-------2-----------------
D-3-------5-------3---------------2-------2-------0-----------------
A-5-------3-------3-----------------------0-------------------------
E-3-----------------------------------------------------------------


A szöveg alatt

e-3-3---3-3-3---0-0-0---0-0-0-0-0--3-3---0-0-0---1-1-1---1-1-1-1-1--
H-3-3-x-5-5-5-x-1-1-1-x-1-1-1-1-1--3-3-x-2-2-2-x-3-3-3-x-3-3-3-3-3--
G-3-3-x-3-3-3-x-2-2-2-x-2-2-2-2-2--3-3-x-0-0-0-x-2-2-2-x-2-2-2-2-2--
D-3-3-x-5-5-5-x-3-3-3-x-3-3-3-3-3--2-2-x-2-2-2-x-0-0-0-x-0-0-0-0-0--
A-5-5---3-3-3---3-3-3---3-3-3-3-3--------0-0-0----------------------
E-3-3---------------------------------------------------------------



A pengetés: le-föl le(x)  föl-le-föl le(x)  föl-le-föl le(x)  föl-le-föl-le-föl
                     le-föl le(x)  föl-le-föl le(x)  föl-le-föl le(x)  föl-le-föl-le-föl


20121115

GRINGO SZTÁR TÉLEN-NYÁRON NYÁR TAB


Az akkordok a következők:
Cm G# Eb B/D
Cm G# Eb G/H
Cm G# Eb B


Intro/verse

e-----3-------3-------4-------4-------3-------3---------------------
H-----4---x---4-------4---x---4-------4---x---4-------3---x---3-----
G-----5---x---5-------5---x---5-------3---x---3-------3---x---3-----
D---------x---------------x---------------x-----------3---x---3-----
A-3-------------------------------6---------------5-----------------
E-----------------4-------------------------------------------------


Refr 1  3 4 5 stb

e-----3-------3-------4-------4-------3-------3---------------------
H-----4---x---4-------4---x---4-------4---x---4-------3---x---3-----
G-----5---x---5-------5---x---5-------3---x---3-------4---x---4-----
D---------x---------------x---------------x-----------5---x---5-----
A-3-------------------------------6---------------2-----------------
E-----------------4-------------------------------------------------


e-----3-------3-------4-------4-------3-------3---------------------
H-----4---x---4-------4---x---4-------4---x---4-------6---x---6-----
G-----5---x---5-------5---x---5-------3---x---3-------7---x---7-----
D---------x---------------x---------------x-----------8---x---8-----
A-3-------------------------------6---------------------------------
E-----------------4-------------------------------6-----------------


Duma rész... és refr 2

e-----3-------3-------4-------4-----------------------6-------6-----
H-----4---x---4-------4---x---4-------8---x---8-------6---x---6-----
G-----5---x---5-------5---x---5-------8---x---8-------7---x---7-----
D-----5---x---5-------6---x---6-------8---x---8-------8---x---8-----
A-------------------------------------6-------6---------------------
E-------------------------------------------------------------------


e-----3-------3-------4-------4-----------------------6-------6-----
H-----4---x---4-------4---x---4-------8---x---8-------6---x---6-----
G-----5---x---5-------5---x---5-------8---x---8-------7---x---7-----
D-----5---x---5-------6---x---6-------8---x---8-------8---x---8-----
A-------------------------------------6-------6---------------------
E-------------------------------------------------------------------


e-----3-------3-------4-------4-------------------------------------
H-----4---x---4-------4---x---4-------8---x---8-------3---x---3-----
G-----5---x---5-------5---x---5-------8---x---8-------4---x---4-----
D-----5---x---5-------6---x---6-------8---x---8-------5---x---5-----
A-------------------------------------6-------6-------2-------2-----
E-------------------------------------------------------------------


e-----3-------3-------4-------4-----------------------6-------6-----
H-----4---x---4-------4---x---4-------8---x---8-------6---x---6-----
G-----5---x---5-------5---x---5-------8---x---8-------7---x---7-----
D-----5---x---5-------6---x---6-------8---x---8-------8---x---8-----
A-------------------------------------6-------6---------------------
E-------------------------------------------------------------------



HOOLIGANS JÁTSZOM TAB


Verse

e-0-----------------------------------------------------------------
H-1---------------1-------------1---------------1-------------------
G-0---------------2-------------2-------4-------0-------2---4-------
D-2---------------2-------------3-------5-------2-------3---5-------
A-3---------------0-------------3-------5-------3-------3---5-------
E-------------------------------1-------3---------------1---3-------


Bridge

e-------------------------------------------------------------------
H-------------------------------------------------------------------
G-------------------------------------------------------------------
D-------------------------------------------------------------------
A-0-----------------------3---2---0---------------------------------
E---------1-------3-----------------------1---------3.----3.--3-----


Refr

e-------------------------------------------------------------------
H-------------------------------------------------------------------
G-------------------------------------------------------------------
D-------------------------------------------------------------------
A-3-----------------------3---2---0-----------------------0---------
E-------------------------------------------------------------3-----


e-----1-------3-------0-------0-----1.--1.--1--------3.--3.--3------
H-----1-------3-------0-------1-----1.--1.--1--------3.--3.--3------
G-----2-------4-------0-------2-----2.--2.--2--------4.--4.--4------
D-----3-------5-------2-------2-----3.--3.--3--------5.--5.--5------
A-------------------------0---------3.--3.--3--------5.--5.--5------
E-1-------3-------0-----------------1.--1.--1--------3.--3.--3---4--


2. refr után

e-------------------------------------------------------------------
H-------------------------------------------------------------------
G-0-0-0-0-0-0-0-0-3-3-3-3-3-3-3-3-----------------------------------
D-2-2-2-2-2-2-2-2-2-2-2-2-2-2-2-2-----------------------------------
A-3-3-3-3-3-3-3-3-3-3-3-3-3-3-3-3-----------------------------------
E-------------------------------------------------------------------


e-1---------------0---------------1---------------0-----------------
H-1---------------1---------------1---------------1-----------------
G-2---------------0---------------2---------------0-----------------
D-3---------------2---------------3---------------2-----------------
A-3---------------3---------------3---------------3-----------------
E-1-------------------------------1---------------------------------


e-1---------------0-------0-------1---------------3-----------------
H-1---------------1-------1-------1---------------3-----------------
G-2---------------0-------2-------2---------------4-----------------
D-3---------------2-------2-------3---------------5-----------------
A-3---------------3-------0-------3---------------5-----------------
E-1-------------------------------1---------------3-----------------


Szóló

e-------------------------------------------------------------------
H-------------------------------------------------------------------
G-------------------------------0-0---0---2-------------------------
D-------5-------3p2-3---2-----2-----2-------------------------------
A-3-----------------------3-----------------------------------------
E-------------------------------------------------------------------


e-------------------------------------------------------------------
H------------------------------/10-8--------------------------------
G------------------------------------9---9---7-9-10--9--7------7~---
D-------5-------3p2-3---2----------------------------------10-------
A-0-----------------------3-----------------------------------------
E-------------------------------------------------------------------


e-------------------------5.---10(12)---10(12)(10)p8---8------------
H-----5h6p5---5-----------5.------------------------10--------------
G-5-7-------7---7-5-4-5---------------------------------------------
D-------------------------------------------------------------------
A-------------------------------------------------------------------
E-------------------------------------------------------------------


e-------5-------5---------------------------------------------------
H-8(10)---8(10)---8---5-8-5---6p5---------8-------------------------
G---------------------------7-----7-5-7/9---------------------------
D-------------------------------------------------------------------
A-------------------------------------------------------------------
E-------------------------------------------------------------------



20121113

ZÖLD A BÍBOR ÉS A FEKETE TAB


Intro

e-----2-------------2-------------3-------------3-------------------
B-------2-------------2-------------3-------------3-----------------
G-------------------------------------------------------------------
D---4-------------4-----------------------------------------  2x  --
A-2-------------2---------------2-------------2---------------------
E-----------------------------3-------------3-----------------------


Verse

e-----2-------------2-----------3---------0-------2-----------------
B-------2-------------2-----------3---------2-------2---------------
G-------------------------------------------------------------------
D---4-------------4---------------------2-------4-----------  4x  --
A-2-------------2---------------------0-------2---------------------
E-----------------------------3-------------------------------------


Bridge

e-------------------------------------------------------------------
B-------------------------------------------------------------------
G-------------------------------------------------------------------
D-----------7.----------------------------------------------  4x  --
A-9-7-9.----5.--4-5.--5-7-------------------------------------------
E-7-5-7.--------2-3.--3-5-------------------------------------------


Refr

e-------------------------------------------------------------------
B-------------------------------------------------------------------
G-------------------------------------------------------------------
D-7-----------------------------------------------7-----------------
A-5-------5-------9-----7---------9-7-9.----5.--5-5-----7-----------
E---------3-------7-----5---------7-5-7.----3.--3-------5-----------


e-------------------------------------------------------------------
B-------------------------------------------------------------------
G-------------------------------------------------------------------
D-7-----------------------------------------------------------------
A-5-------5-------9-------7-------5-5-5-5-5-5-5-5-7-7-7-7-7-7-7-7---
E---------3-------7-------5-------3-3-3-3-3-3-3-3-5-5-5-5-5-5-5-5---


Solo 1

e-------------------------------------------------------------------
B---7~~~~--\--------------------------------------------------------
G------------------9(11)(9)p7---9---(11).---------------------------
D----------------------------9--------------------------------------
A-------------------------------------------------------------------
E-------------------------------------------------------------------


e---------10-9------------------------------------------------------
B------12--------10---12~~~---\-------------------------------------
G---11--------------------------------------------------------------
D-------------------------------------------------------------------
A-------------------------------------------------------------------
E-------------------------------------------------------------------


e-------------------------------------------------------------------
B---10---------------------------7.---------------------------------
G---9---(11).-----7'-------------7.---------------------------------
D----------------------9---9p7-------9~-----------------------------
A-----------------------------9-------------------------------------
E-------------------------------------------------------------------


e-------------------------------------------------------------------
B----------------------7-----------7.-------------------------------
G---9(11)---9~---7h9p7-7--9-9p7--------9~---------------------------
D---------------------9---------9-----------------------------------
A-------------------------------------------------------------------
E-------------------------------------------------------------------


e-------------------------------------------------------------------
B-------------------------------------------------------------------
G---7---(9).--------------------------------------------------------
D-------------------------------------------------------------------
A-------------------------------------------------------------------
E-------------------------------------------------------------------


SZÓLÓ 1 + SZÓLÓ 2 GP6 + PDF >>


20121112

OSSIAN TÖBBET ÉR MINDENNÉL TAB (INTRO)



(Half step down tuning)

 
eb-1----------3---1---0-------1----------3---1---0------------------
Hb-3---------3------------3.--3---------3------------3.-------------
Gb-2--------2-----------------2--------2----------------------------
Db-0--------------------------0-------------------------------------
Ab------------------------------------------------------------------
Eb------------------------------------------------------------------


eb-0----------------------------------0-------------------0---------
Hb-1----------3---1---0-----------1-----------0---3-----------------
Gb-2---------2------------0---2-----------0-----------0-------------
Db-2--------2-------------------------------------------------------
Ab-0----------------------------------------------------------------
Eb------------------------------------------------------------------


eb-1----------3---1---0-------1----------3---1---0------------------
Hb-3---------3------------3.--3---------3------------3.-------------
Gb-2--------2-----------------2--------2----------------------------
Db-0--------------------------0-------------------------------------
Ab------------------------------------------------------------------
Eb------------------------------------------------------------------


eb-0--------------------------3-------------------------------------
Hb-1----------3---1---0-------0-------------------------------------
Gb-2---------2------------2---0-------------------------------------
Db-2--------2-----------------0-------------------------------------
Ab-0--------------------------2-------------------------------------
Eb----------------------------3-------------------------------------



GITANO SEMMI NEM ELÉG TAB



Refr/intro

e-4-------4-------6-------4-------4-------4-------6-------4---------
H-5-------4-------8-------4-------5-------4-------8-------4---------
G-6-------4-------6-------4-------6-------4-------6-------4---------
D-6-------6-------8-------6-------6-------6-------8-------6---------
A-4-------6-------6-------6-------4-------6-------6-------6---------
E---------4---------------4---------------4---------------4---------


Verse

e-4---------------6---------------4-------6-------4-----------------
H-4---------------6---------------5-------8-------4-----------------
G-4---------------7---------------6-------6-------4-----------------
D-6---------------6---------------6-------8-------6-----------------
A-6---------------8---------------4-------6-------6-----------------
E-4---------------6-------------------------------4-----------------


e-4---------------4---------------4-------4-------6-7-6-7-6-7-6-7-6\
H-5---------------4---------------5-------6-------8-9-8-9-8-9-8-9-8\
G-6---------------4---------------6-------4-------6-7-6-7-6-7-6-7-6\
D-6---------------6---------------6-------6-------8-9-8-9-8-9-8-9-8\
A-4---------------6---------------4-------5-------------------------
E-----------------4-------------------------------------------------


intro

e-------------------------------------------------------------------
H-------------12-14-14(16)---------14p12-14----12-14-12~----14.-----
G-------11h13-------------------------------13----------------------
D-11h13-------------------------------------------------------------
A-------------------------------------------------------------------
E-------------------------------------------------------------------


e-------------------------------------------------------------------
H-14(16)-14-12----12~-----------14(16)-14-12----12~-----------------
G--------------13------13p11-----------------13------13p11----------
D----------------------------13----------------------------13-------
A-------------------------------------------------------------------
E-------------------------------------------------------------------


e-------------------------------------------------------------------
H-------------------------------------------------------------------
G-------------------------------------------------------------------
D-13\11p9-11----9-11-9~---------------------------------------------
A------------11----------11\----------------------------------------
E-------------------------------------------------------------------



e-11h12.--12.--12p11------------------------------------------------
H--------------------14p12-14(16).-----------14--p12----------------
G----------------------------------------------------13~------------
D-------------------------------------------------------------------
A-------------------------------------------------------------------
E-------------------------------------------------------------------


e------------------------------------------14-----------------------
H-12h14---14---14---12h14---12---11---12--------12---11-------------
G---------------------------------------------------------13\-------
D-------------------------------------------------------------------
A-------------------------------------------------------------------
E-------------------------------------------------------------------


e-11h12---12---12---11(12)(11)--------------------------------------
H------------------------------14---12-14(16)---14(16)(14)-12~--\---
G-------------------------------------------------------------------
D-------------------------------------------------------------------
A-------------------------------------------------------------------
E-------------------------------------------------------------------


e-------------------------------------------------------------------
H-12h14---14---14---14-14p12-11~------------------------------------
G---------------------------------13\-------------------------------
D--------------------------------------------------------4h6--------
A-------------------------------------------------------------------
E------------------------------------------------------------4------


Szóló

e-19(21)---19(21)---19(21)---19(21)---19(21)(19)-16-16---19.--------
H-------------------------------------------------------------------
G-------------------------------------------------------------------
D-------------------------------------------------------------------
A-------------------------------------------------------------------
E-------------------------------------------------------------------


e---------------------11--------------------------------------------
H-14(16)(14)-12-12-14----12~--------------------12---14-------------
G-----------------------------13~-\-------/13-----------------------
D-------------------------------------------------------------------
A-------------------------------------------------------------------
E-------------------------------------------------------------------


e-------------------------------------------------------------------
H-14(16)(14)p12--14(16)(14)p12--14(16)(14)p12--14(16)-14.-12.-------
G-------------------------------------------------------------------
D-------------------------------------------------------------------
A-------------------------------------------------------------------
E-------------------------------------------------------------------


e-------------------------------------------------------------------
H-14(16)-14.-12.--14(16)-14.-12.--14(16)-14.-12.--14(16)-14.-12.----
G-------------------------------------------------------------------
D-------------------------------------------------------------------
A-------------------------------------------------------------------
E-------------------------------------------------------------------


e-------------------------------------------------------------------
H-14(16)-14.-12.--14(16)-14.-12.------------------------------------
G-------------------------------------------------------------------
D-------------------------------------------------------------------
A-------------------------------------------------------------------
E-------------------------------------------------------------------


e-21(23)------21(23)------21(23)---21(23)-21(23)--(21)-19-19-----21'
H-------------------------------------------------------------21----
G-------------------------------------------------------------------
D-------------------------------------------------------------------
A-------------------------------------------------------------------
E-------------------------------------------------------------------


Intro/Refr és Verse akkordok

C#m G#m Eb7 G#m

G#m B7 C#m Eb7 G#m  C#m G#m C#m D(szűk) Eb7 E7 Eb7 E7.....



20121111

HOBO 320AS BLUES TAB



Ritmusgitár

e-------------------------------------------------------------------
H-------------------------------------------------------------------
G-------------------------------------------------------------------
D-7---7-9---7-7---7-9---7-7---7-9---7-7---7-9---7-------------------
A-5---5-5---5-5---5-5---5-5---5-5---5-5---5-5---5-------------------
E-------------------------------------------------------------------
      x     x     x     x     x     x     x     x

e-------------------------------------------------------------------
H-------------------------------------------------------------------
G-------------------------------------------------------------------
D-7---7-9---7-7---7-9---7-7---7-9---7-7---7-9---7-------------------
A-5---5-5---5-5---5-5---5-5---5-5---5-5---5-5---5-------------------
E-------------------------------------------------------------------
      x     x     x     x     x     x     x     x

e-------------------------------------------------------------------
H-------------------------------------------------------------------
G-------------------------------------------------------------------
D-------------------------------------------------------------------
A-5---5-7---5-5---5-7---5-5---5-7---5-5---5-7---5-------------------
E-3---3-3---3-3---3-3---3-3---3-3---3-3---3-3---3-------------------
      x     x     x     x     x     x     x     x
 
e-------------------------------------------------------------------
H-------------------------------------------------------------------
G-------------------------------------------------------------------
D-7---7-9---7-7---7-9---7-7---7-9---7-7---7-9---7-------------------
A-5---5-5---5-5---5-5---5-5---5-5---5-5---5-5---5-------------------
E-------------------------------------------------------------------
      x     x     x     x     x     x     x     x
  
e-------------------------------------------------------------------
H-------------------------------------------------------------------
G-------------------------------------------------------------------
D-------------------------------------------------------------------
A-7---7-9---7-7---7-9---7-5---5-7---5-5---5-7---5-------------------
E-5---5-5---5-5---5-5---5-3---3-3---3-3---3-3---3-------------------
      x     x     x     x     x     x     x     x

e-------------------------------------------------------------------
H-------------------------------------------------------------------
G-------------------------------------------------------------------
D-7---10--9---8---7---10--9---8---7---10--9---8---7.----------------
A-5---8---7---6---5---8---7---6---5---8---7---6---5.----------------
E-----------------------------------------------------3-4---5~------


Intro Solo

e-10-10-10--10-10-10--10-10-10--10-10-10----------------------------
H-10-10-10--10-10-10--10-10-10--10-10-10----------------------------
G----------------------------------------11-------------------------
D---------------------------------------------12--------------------
A-------------------------------------------------------------------
E-------------------------------------------------------------------


e-10-10-10--10-10-10--10-10-10--10-10-10----------------------------
H-10-10-10--10-10-10--10-10-10--10-10-10----------------------------
G----------------------------------------11-------------------------
D---------------------------------------------12--------------------
A-------------------------------------------------------------------
E-------------------------------------------------------------------


e-------------------------------------------------------------------
H-------------------------------------------------------------------
G-10-10.--10-10'---------------10------10---12(14)(12)(14)~---------
D-----------------12---10h12------12--------------------------------
A-------------------------------------------------------------------
E-------------------------------------------------------------------


e-------------------------------------------------------------------
H--------13---------------------------------------------------------
G-12(14)----(14).-(14)(12)-10h12p10~-----10h12p10----10'-----10.----
D-------------------------------------12----------12------12--------
A-------------------------------------------------------------------
E-------------------------------------------------------------------


e----------10-------------------------------------------------------
H-------------13-10-------------------------------------------------
G-12(14)------------13-12p10----12----10-12(14).-(14)(12)p10----10~-
D----------------------------12----12------------------------12-----
A-------------------------------------------------------------------
E-------------------------------------------------------------------


e----------------------------------------------10-------------------
H-------------------------------------------------13-10-------------
G-10------10-12(14)--12(13)--12~-10---12(14)------------13-12p10----
D----12----------------------------------------------------------12-
A-------------------------------------------------------------------
E-------------------------------------------------------------------


e-------------------------------------------------------------------
H-------------------------------------------------------------------
G-10-12(14)--12(13)--12~---10.--------------------------------------
D-------------------------------12-10-------------------------------
A---------------------------------------12~-------------------------
E-------------------------------------------------------------------



20121106

BIKINI KÖZELI HELYEKEN TAB (SZÓLÓ)



BIKINI KÖZELI HELYEKEN SZÓLÓ TAB

Akusztikus gitár

e-------------------------------------------------------------------
H-----------------------------0-------------------------------------
G------------0------------0-2-----2---0-----------------------------
D-2------4-------4----------------------4-2-------------------------
A-------------------------------------------------------------------
E-------------------------------------------------------------------


e-------------------------------------------------------------------
H-------------0-------------------0---1-----------------------------
G-------2-----------2h4p2-0---2---------2-4~------------------------
D-2-4-5---5---------------------------------------------------------
A-------------------------------------------------------------------
E-------------------------------------------------------------------


Szólógitár

e-12---15---17---17(19)\-/(19)---17(19)---(19)-(19)\(17)p15-17~-----
H-------------------------------------------------------------------
G-------------------------------------------------------------------
D-------------------------------------------------------------------
A-------------------------------------------------------------------
E-------------------------------------------------------------------


e-22(24)\-/(24)---22(24)---22---19h22-19----------------------------
H-------------------------------------------------------------------
G-------------------------------------------------------------------
D-------------------------------------------------------------------
A-------------------------------------------------------------------
E-------------------------------------------------------------------


e-------5--------------7-8------------------------------------------
H-5-7-8---8~---/8---10-----10~---8(10)---8-7h8p7--------------------
G-----------------------------------------------8---8/10~-----------
D-------------------------------------------------------------------
A-------------------------------------------------------------------
E-------------------------------------------------------------------



EDDA A KÖR TAB (SZÓLÓ)



e-15(17)-15(17)\(15)/(17)\(15)/(17)~--------------------------------
H-------------------------------------------------------------------
G-------------------------------------------------------------------
D-------------------------------------------------------------------
A-------------------------------------------------------------------
E-------------------------------------------------------------------


e-15(17)-15-13--12-13----12-----------------------------------------
H---------------------15-----13-15-12-13p12--12~~-------------------
G------------------------------------------14-----------------------
D-------------------------------------------------------------------
A-------------------------------------------------------------------
E-------------------------------------------------------------------


e-------------------------------------------------------------------
H-------------------------------------------------------------------
G-5-7-5-7-7(9)-7-5-4-----------------------------7(9)-7-//-(9)~~~---
D-------------------5~~-------------------5~------------------------
A-----------------------------3---3-7--3-5--------------------------
E-------------------------3-5---5-----------------------------------
  x x x x                 x x x x   x  x


e-------------------------------------------------------------------
H-----8------------------------8-10p8--8~--5------------------------
G-7(9)--7(9)\(7)-5-4-5-4-------------9-------7-7p5--5---5-----------
D-----------------------5~~-----------------------7---7-------------
A-------------------------------------------------------------------
E-------------------------------------------------------------------


e-------------------------------------------------------------------
H-------------------------------------------------------------------
G-7(9)-7-5-4-5-4----------------------------------------------------
D---------------5~~--------------------5~---------------------------
A--------------------------3-3/5---5--5-----------------------------
E----------------------3-5-------5--8-------------------------------
                       x x       x  x  

e-------------------------------------------------------------------
H----------------------------13(15)-13-12----12---------------------
G-7(9)-7-5-4-5-4-----------12-------------14----12-14~~-------------
D---------------5~~-------------------------------------------------
A-------------------------------------------------------------------
E-------------------------------------------------------------------
                           x

e--------------12-13----12------------------------------------------
H-12--12-13-15-------15----13-15-12-13p12--12~----8-10p8---8--------
G----------------------------------------14-------------9----9-7-5~~
D-------------------------------------------------------------------
A-------------------------------------------------------------------
E-------------------------------------------------------------------


e-------------------------------------------------------------------
H-----8---------------------------------------------10~~--------\---
G-7(9)--7(9)\(7)-5-4--5-4-------------------------------------------
D------------------------5~~-----------------5~---------------------
A-----------------------------------3-5-7-3-5-----------------------
E-------------------------------3-5---------------------------------
                                    x     x



HOOLIGANS MENJ TOVÁBB TAB



verse

  Em      G       Em      G   D    Em      G       Em      G   D   

e-3-------3-------3-------3---2----3-------3-------3-------3---2----
H-0-------0-------0-------0---3----0-------0-------0-------0---3----
G-0-------0-------0-------0---2----0-------0-------0-------0---2----
D-2-------0-------2-------0---0----2-------0-------2-------0---0----
A-2-------2-------2-------2---0----2-------2-------2-------2---0----
E-0-------3-------0-------3--------0-------3-------0-------3--------


Bridge

  C       Em      C       Em      C       Em      A       D7

e-3-------3-------3-------3-------3-------3-------0-------2---------
H-1-------0-------1-------0-------1-------0-------2-------1---------
G-0-------0-------0-------0-------0-------0-------2-------2---------
D-2-------2-------2-------2-------2-------2-------2-------0---------
A-3-------2-------3-------2-------3-------2-------0-------0---------
E---------0---------------0---------------0-------------------------


Refr

  G   Hm  C   D   G   Hm  C   D   G   H   C   D   G   Hm  C   D  

e-3---2---0---2---3---2---0---2---3---2---0---2---3---2---0---2-----
H-0---3---1---3---0---3---1---3---0---4---1---3---0---3---1---3-----
G-0---4---0---2---0---4---0---2---0---4---0---2---0---4---0---2-----
D-0---4---2---0---0---4---2---0---0---4---2---0---0---4---2---0-----
A-2---2---3---0---2---2---3---0---2---2---3---0---2---2---3---0-----
E-3---------------3---------------3---------------3-----------------


Szóló

e-------------------------------------------------------------------
H--------------------------------------15(17)------15~--------------
G-/12---12---12-12-11.--12.-12h14-----------------------------------
D-------------------------------------------------------------------
A-------------------------------------------------------------------
E-------------------------------------------------------------------


e----15---15--15--15--15--15.--17(19)-------------------------------
H-/15--15---15--15--15--15----------------15(17)--15(17).--15-------
G-------------------------------------------------------------------
D-------------------------------------------------------------------
A-------------------------------------------------------------------
E-------------------------------------------------------------------


e------------------11--------11-11-11h12----------------------------
H-------------12----------------------------------------------------
G-/12p11-12---------------------------------------------------------
D-------------------------------------------------------------------
A-------------------------------------------------------------------
E-------------------------------------------------------------------


e-------------------------------------------------------------------
H-/15------15-------------------------------------------------------
G-/14(16)--14(16)--14(16)(14)-12----------------12-12---------------
D----------------------------------------12h14----------------------
A-------------------------------------------------------------------
E-------------------------------------------------------------------


e--------------12--------12---------------------15------------------
H-----------------------------------------------15-15---------------
G-12-12-14(16)----14(16)----14(16)-------14(16)-------(16)(14)--12--
D-------------------------------------------------------------------
A-------------------------------------------------------------------
E-------------------------------------------------------------------



EDDA ELHAGYOM A VÁROST TAB (SZÓLÓ)



e-------------------------------------------------------------------
H-------------------------------------------------------------------
G-2(3)(2)-0----------------0-2(3)(2)-0------------------------------
D----------3/5~-----------------------3/5~--------------------------
A-------------------------------------------------------------------
E-------------------------------------------------------------------


e-------------------------------------------------------------------
H-------------------------------------------------------------------
G-0.-3.-5(7).-5.-3(5)(3)(5)(3)(5)(3)~~------------------------------
D-------------------------------------------------------------------
A-------------------------------------------------------------------
E-------------------------------------------------------------------


e-------------------------------------------------------------------
H-----------3''''(5)~~-----------------5'''(7)~--5(7)-5(7)~~----/---
G-2(3)(2)-0----------------0-2(3)(2)-0------------------------------
D-------------------------------------------------------------------
A-------------------------------------------------------------------
E-------------------------------------------------------------------


e---------10---------------------------------8----------------------
H-10''(12)---(12)(10)-8.--10.-8-8-8~--\-----------------------------
G------------------------------9-9--------/9--9~--------------------
D-------------------------------------------------------------------
A-------------------------------------------------------------------
E-------------------------------------------------------------------


e------------6------------------------------------------------------
H---4.-(8)(6)--(8)(6)-4---------------------------/3----------------
G-5.-----------------------------2(3)(2)-0-2-----0--4~---2.-0~------
D--------------------------------------------2-0--------------------
A-------------------------------------------------------------------
E-------------------------------------------------------------------



fillek
       0:50                                        0:57
e---------------------------10--------------------------------------
H---(12)\(10)-10.-8.--10(12)----------------(17)(15)-12-------------
G-------------------------------------------------------14(16)-14~--
D-------------------------------------------------------------------
A-------------------------------------------------------------------
E-------------------------------------------------------------------

        1:04                         1:49                    
e-10----------------------------------------------------------------
H---(12)(10)-8~-----------------------------------------------------
G-------------------------------(16)(14)-12.-12~--------------------
D-------------------------------------------------------------------
A-------------------------------------------------------------------
E-------------------------------------------------------------------


      1:54
e-------------------------------------------------------------------
H-------------------------------------------------------------------
G-(7)(5)p3.-5.-3.-5'''(7)~~-----------------------------------------
D-------------------------------------------------------------------
A-------------------------------------------------------------------
E-------------------------------------------------------------------



      2:01                                  2:15               
e--------------10---------------------------------------------------
H-----8--10(12)--(12)(10)-8-8~--------------------------------------
G-7h9----------------------9--------------3-------------------------
D------------------------------------------5~-----------------------
A-------------------------------------------------------------------
E-------------------------------------------------------------------


      2:23                                     2:28
e-------------------------------------------------------------------
H-----------------------------------15-12---------------------------
G-(7)(5)-3-5'''(7)------------------------14(16)(14)-12.-12~--------
D-------------------------------------------------------------------
A-------------------------------------------------------------------
E-------------------------------------------------------------------



P BOX VÁGTASS VELEM TAB



intro

e-------------------------------------------------------------------
H----------------------------------------------10--------8-10-------
G-------------------------10-9-------------------9-----9------------
D---------9-10-------9-10----------------9-10-----9-10--------------
A-12--12--------12---------------12--12-----------------------------
E-------------------------------------------------------------------


e-------------------------------------------------------------------
H----------------------------------------------10--------8-10-------
G-------------------------10-9-------------------9-----9------------
D---------9-10-------9-10----------------9-10-----9-10--------------
A-12--12--------12---------------12--12-----------------------------
E-------------------------------------------------------------------



Verse

e-------------------------------------------------------------------
H-------------------------------------------------------------------
G-------------------------------------------------------------------
D-14-14-14-14-14-14-14-14-14-14-14-14-14-14-14-14-------------------
A-12-12-12-12-12-12-12-12-12-12-12-12-12-12-12-12-------------------
E-------------------------------------------------------------------
  x  x  x  x  x  x  x  x  x  x  x  x  x  x  x  x 

e-------------------------------------------------------------------
H-------------------------------------------------------------------
G-------------------------------------------------------------------
D-14-14-14-14-14-14-14---10-10-10/12-12-12--------------------------
A-12-12-12-12-12-12-12---8--8--8-/10-10-10--------------------------
E-------------------------------------------------------------------
  x  x  x  x  x  x  x 



bridge

e-------------------------------------------------------------------
H-------------------------------------------------------------------
G-------------------------------------------------------------------
D------------------------7--9---5--7---3--5-------------------------
A-8--10---7--8---5--7-----------------------------------------------
E-------------------------------------------------------------------


Refr

e-------------------------------------------------------------------
H-------------------------------------------------------------------
G-------------------------------------------------------------------
D-----------------------------2h3-----------------------------------
A-------------------------------------------------------------------
E-0-0-0-0-0-0-0-0-0-0-0-0-0-0---------------------------------------
  x x x x x x x x x x x x x x
 

e-------------------------------------------------------------------
H-------------------------------------------------------------------
G-------------------------------------------------------------------
D-2---------------------------3h5-----------------------------------
A-------------------------------------------------------------------
E---0-0-0-0-0-0-0-0-0-0-0-0-0---------------------------------------
    x x x x x x x x x x x x x

e-------------------------------------------------------------------
H-------------------------------------------------------------------
G-------------------------------------------------------------------
D-2---------------------------2h3-----------------------------------
A-------------------------------------------------------------------
E---0-0-0-0-0-0-0-0-0-0-0-0-0---------------------------------------
    x x x x x x x x x x x x x

e-------------------------------------------------------------------
H-------------------------------------------------------------------
G-------------------------------------------------------------------
D-2-------------------2--3--5---------------------------------------
A-------------------------------------------------------------------
E---0-0-0-0-0-0-0-0-0-----------------------------------------------
    x x x x x x x x x



SUPERNEM ZSEBRE DUGOTT KÉZZEL TAB


intro

e-------------------------------------------------------------------
H-3---3------3.---3---3------3.---3---3------3.---3---3------3.-----
G-3---3-5.---3.-5-3---3-5.---3.-5-3---3-5.---3.-5-3---3-5.---3.-5---
D-3---3-3.---3.-3-3---3-3.---3.-3-3---3-3.---3.-3-3---3-3.---3.-3---
A-------------------------------------------------------------------
E-------------------------------------------------------------------


e-------------------------------------------------------------------
H-3---3------3.---3---3------3.---3---3------3.---3---3------3.-----
G-3---3-5.---3.-5-3---3-5.---3.-5-3---3-5.---3.-5-3---3-5.---3.-5---
D-3---3-3.---3.-3-3---3-3.---3.-3-3---3-3.---3.-3-3---3-3.---3.-3---
A-------------------------------------------------------------------
E-------------------------------------------------------------------


e-------------------------------------------------------------------
H-3---3------3.---3---3------3.---3---3------3.---3---3------3-3----
G-3---3-5.---3.-5-3---3-5.---3.-5-3---3-5.---3.-5-3---3-5.---3-3-5--
D-3---3-3.---3.-3-3---3-3.---3.-3-3---3-3.---3.-3-3---3-3.---3-3-3--
A-------------------------------------------------------------------
E-------------------------------------------------------------------


Verse

e-------------------------------------------------------------------
H-------------------------------------------------------------------
G-------------------------------------------------------------------
D-8-8-8-8-8-8-8-8-8-8-8-8-8-8-8-8-10101010101010101010101010101010--
A-8-8-8-8-8-8-8-8-8-8-8-8-8-8-8-8-8-8-8-8-8-8-8-8-8-8-8-8-8-8-8-8---
E-6-6-6-6-6-6-6-6-6-6-6-6-6-6-6-6-8-8-8-8-8-8-8-8-8-8-8-8-8-8-8-8---
  x x x x x x x x x x x x x x x x x x x x x x x x x x x x x x x x 

e-------------------------------------------------------------------
H-------------------------------------------------------------------
G----------------------------------8-8-8-8-8-8-8-8-8-8-8-8-8-8-8-8--
D-10101010101010101010101010101010-8-8-8-8-8-8-8-8-8-8-8-8-8-8-8-8--
A-8-8-8-8-8-8-8-8-8-8-8-8-8-8-8-8--6-6-6-6-6-6-6-6-6-6-6-6-6-6-6-6--
E-10101010101010101010101010101010----------------------------------
  x x x x x x x x x x x x x x x x  x x x x x x x x x x x x x x x x


e-------------------------------------------------------------------
H-3---3------3.---3---3------3.---3---3------3.---3---3------3.-----
G-3---3-5.---3.-5-3---3-5.---3.-5-3---3-5.---3.-5-3---3-5.---3.-5---
D-3---3-3.---3.-3-3---3-3.---3.-3-3---3-3.---3.-3-3---3-3.---3.-3---
A-------------------------------------------------------------------
E-------------------------------------------------------------------


e-------------------------------------------------------------------
H-3---3------3.---3---3------3.---3---3------3.---4-----------------
G-3---3-5.---3.-5-3---3-5.---3.-5-3---3-5.---3.-5-3-----------------
D-3---3-3.---3.-3-3---3-3.---3.-3-3---3-3.---3.-3-3-----------------
A-------------------------------------------------------------------
E-------------------------------------------------------------------


Refr

e-------------------------------------------------------------------
H-------------------------------------------------------------------
G-3.------------------------------5---5-5-5-5-5-5-5-5-5-5-5-5-5-5---
D-3.------------------------------5---5-5-5-5-5-5-5-5-5-5-5-5-5-5---
A-1.------------------------------3---3-3-3-3-3-3-3-3-3-3-3-3-3-3---
E-------------------------------------------------------------------
                                      x x x x x x x x x x x x x x

e-------------------------------------------------------------------
H-------------------------------------------------------------------
G-8---8-8-8-8-8-8---8---8-8-8-8-8-8---8---8-8-8-8-8-8---8---8-8-8---
D-8---8-8-8-8-8-8---8---8-8-8-8-8-8---8---8-8-8-8-8-8---8---8-8-8---
A-6---6-6-6-6-6-6---6---6-6-6-6-6-6---6---6-6-6-6-6-6---6---6-6-6---
E-------------------------------------------------------------------
      x x x x x         x x x x x         x x x x x         x x x

e-------------------------------------------------------------------
H-------------------------------------------------------------------
G-3---3-3-3-3-3-3-3-3-3-3-3-3-3-3-5---5-5-5-5-5-5-5-5-5-5-5-5-5-5---
D-3---3-3-3-3-3-3-3-3-3-3-3-3-3-3-5---5-5-5-5-5-5-5-5-5-5-5-5-5-5---
A-1---1-1-1-1-1-1-1-1-1-1-1-1-1-1-3---3-3-3-3-3-3-3-3-3-3-3-3-3-3---
E-------------------------------------------------------------------
      x x x x x x x x x x x x x x     x x x x x x x x x x x x x x

e-------------------------------------------------------------------
H-------------------------------------------------------------------
G-8---8-8-8-8-8-8---8---8-8-8-8-8-8---8---8-8-8-8-8-8---8---8-------
D-8---8-8-8-8-8-8---8---8-8-8-8-8-8---8---8-8-8-8-8-8---8---8-------
A-6---6-6-6-6-6-6---6---6-6-6-6-6-6---6---6-6-6-6-6-6---6---6-------
E-------------------------------------------------------------------
      x x x x x         x x x x x         x x x x x         


Refr 2

e-------------------------------------------------------------------
H-------------------------------------------------------------------
G-3.------------------------------5---5-5-5-5-5-5-5-5-5-5-5-5-5-5---
D-3.------------------------------5---5-5-5-5-5-5-5-5-5-5-5-5-5-5---
A-1.------------------------------3---3-3-3-3-3-3-3-3-3-3-3-3-3-3---
E-------------------------------------------------------------------
                                      x x x x x x x x x x x x x x

e-------------------------------------------------------------------
H-------------------------------------------------------------------
G-8---8-8-8-8-8-8---8---8-8-8-8-8-8---8---8-8-8-8-8-8---8---8-8-8---
D-8---8-8-8-8-8-8---8---8-8-8-8-8-8---8---8-8-8-8-8-8---8---8-8-8---
A-6---6-6-6-6-6-6---6---6-6-6-6-6-6---6---6-6-6-6-6-6---6---6-6-6---
E-------------------------------------------------------------------
      x x x x x         x x x x x         x x x x x         x x x

e-------------------------------------------------------------------
H-------------------------------------------------------------------
G-3---3-3-3-3-3-3-3-3-3-3-3-3-3-3-5---5-5-5-5-5-5-5-5-5-5-5-5-5-5---
D-3---3-3-3-3-3-3-3-3-3-3-3-3-3-3-5---5-5-5-5-5-5-5-5-5-5-5-5-5-5---
A-1---1-1-1-1-1-1-1-1-1-1-1-1-1-1-3---3-3-3-3-3-3-3-3-3-3-3-3-3-3---
E-------------------------------------------------------------------
      x x x x x x x x x x x x x x     x x x x x x x x x x x x x x

e-------------------------------------------------------------------
H-------------------------------------------------------------------
G-8---8-8-8-8-8-8---8---8-8-8-8-8-8---8---8-8-8-8-8-8---8---8-------
D-8---8-8-8-8-8-8---8---8-8-8-8-8-8---8---8-8-8-8-8-8---8---8-------
A-6---6-6-6-6-6-6---6---6-6-6-6-6-6---6---6-6-6-6-6-6---6---6-------
E-------------------------------------------------------------------
      x x x x x         x x x x x         x x x x x         


e-------------------------------------------------------------------
H-------------------------------------------------------------------
G---------------------------------5---5---5-5-5-5---5-5-5---5-5-5---
D-5---5---5-5-5-5---5-5-5---5-5-5-5---5---5-5-5-5---5-5-5---5-5-5---
A-5---5---5-5-5-5---5-5-5---5-5-5-3---3---3-3-3-3---3-3-3---3-3-3---
E-3---3---3-3-3-3---3-3-3---3-3-3-----------------------------------


e-------------------------------------------------------------------
H-------------------------------------------------------------------
G-8---8---8-8-8-8---8-8-8---8-8-8-8---8---8-8-8-8---8-8-8---8-8-8---
D-8---8---8-8-8-8---8-8-8---8-8-8-8---8---8-8-8-8---8-8-8---8-8-8---
A-6---6---6-6-6-6---6-6-6---6-6-6-6---6---6-6-6-6---6-6-6---6-6-6---
E-------------------------------------------------------------------


e-------------------------------------------------------------------
H-------------------------------------------------------------------
G-------------------------------------------------------------------
D-5---5---5-5-5-5---5-5-5---5-5-5-8---8---8-8-8-8---8-8-8---8-8-8---
A-5---5---5-5-5-5---5-5-5---5-5-5-7---7---7-7-7-7---7-7-7---7-7-7---
E-3---3---3-3-3-3---3-3-3---3-3-3-----------------------------------


e-------------------------------------------------------------------
H-------------------------------------------------------------------
G-8---8---8-8-8-8---8-8-8---8-8-8-8---8---8-8-8-8---8-8-8---8-8-8---
D-8---8---8-8-8-8---8-8-8---8-8-8-8---8---8-8-8-8---8-8-8---8-8-8---
A-6---6---6-6-6-6---6-6-6---6-6-6-6---6---6-6-6-6---6-6-6---6-6-6---
E-------------------------------------------------------------------


refr 2 után

e-------------------------------------------------------------------
H-------------------------------------------------------------------
G---------------8---8-x-10--10x-x---------------8---8-x-10--10x-x---
D-8---8---8-8-8-8---8-x-10--10x-x-5---5---5-5-5-8---8-x-10--10x-x---
A-8---8---8-8-8-6---6-x-8---8-x-x-5---5---5-5-5-6---6-x-8---8-x-x---
E-6---6---6-6-6-------------------3---3---3-3-3---------------------


e-------------------------------------------------------------------
H-------------------------------------------------------------------
G---------------8---8-x-10--10x-x---------------8---8-x-10--10x-x---
D-8---8---8-8-8-8---8-x-10--10x-x-5---5---5-5-5-8---8-x-10--10x-x---
A-8---8---8-8-8-6---6-x-8---8-x-x-5---5---5-5-5-6---6-x-8---8-x-x---
E-6---6---6-6-6-------------------3---3---3-3-3---------------------



e-------------------------------------------------------------------
H-------------------------------------------------------------------
G----------------------------------8---8-8-8-8-8-8---10--10--10-----
D-10--1010101010101010101010101010-8---8-8-8-8-8-8-x-10x-10x-10-----
A-10--1010101010101010101010101010-6---6-6-6-6-6-6-x-8-x-8-x-8------
E-8---8-8-8-8-8-8-8-8-8-8-8-8-8-8-----------------------------------
          x x x x x x x x x x x x

innen meg az intro + verse



PIRAMIS CSAK RÖVID IDŐ TAB (MAIN RIFF)



e-------------------------------------------------------------------
H-------------------------------------------------------------------
G-------------------------------------------------------------------
D---2---p1p0-----------------------------------------2-0h1h2--------
A-----------2p1p0--------1'------3p2-3p2-1'-----2------------2------
E-0---------------3'---0------------------------0------------0------
  x                    x         


e-------------------------------------------------------------------
H-------------------------------------------------------------------
G-------------------------------------------------------------------
D---2---p1p0-----------------------------------------2-0h1h2--------
A-----------2p1p0--------1'------3p2-3p2-1'-----2------------2------
E-0---------------3'---0------------------------0------------0------
  x                    x         


e-------------------------------------------------------------------
H-------------------------------------------------------------------
G-------------------------------------------------------------------
D-9---x-x-x-x-x-x-x-x-x-x-9-9-9-9--7/9-x-x-x-x-x-x-x-x-x-x-7-x-7-x--
A-7---x-x-x-x-x-x-x-x-x-x-7-7-7-7--5/7-x-x-x-x-x-x-x-x-x-x-5-x-5-x--
E-------------------------------------------------------------------


e-------------------------------------------------------------------
H-------------------------------------------------------------------
G-------------------------------------------------------------------
D-7/9-x-x-x-x-x-x-x-x-x-x-7-x-7-x---7/9-x-x-x-x-x-x-x-x-9-9-9-\-----
A-5/7-x-x-x-x-x-x-x-x-x-x-5-x-5-x---5/7-x-x-x-x-x-x-x-x-7-7-7-\-----
E-------------------------------------------------------------------


e-------------------------------------------------------------------
H-------------------------------------------------------------------
G-------------------------------------------------------------------
D-2---p1p0------2---p1p0------2---p1p0------------------------------
A---------2p1p0---------2p1p0---------2p1p0-2-----------------------
E-------------------------------------------0-----------------------