A következő címkéjű bejegyzések mutatása: gitárszóló. Összes bejegyzés megjelenítése
A következő címkéjű bejegyzések mutatása: gitárszóló. Összes bejegyzés megjelenítése

20130115

TANKCSAPDA MAGZAT A MÉHBEN TAB (SZÓLÓ)


e-------------------------------------------------------------------
H-------------------------------------------------------------------
G-------5'---------5'--------------------5'---------5'--------------
D-5h7--------7p5-7------7p5-5------7p5-7------7p5-7------7p5-5------
A-------------------------------------------------------------------
E-------------------------------------------------------------------


e-------------------------------------------------------------------
H----------13'------------13'---------13----------------------------
G-14p12-14-------14p12-14-------14p12-------------------------------
D-------------------------------------------------------------------
A-------------------------------------------------------------------
E-------------------------------------------------------------------


e-------------------------------------------------------------------
H-15(17)------(17)(15)-13-15(17).---13------------------------------
G-------------------------------------------------------------------
D-------------------------------------------------------------------
A-------------------------------------------------------------------
E-------------------------------------------------------------------


e-------------------------------------------------------------------
H-15(17)------15(17).--15(17).--15(17)-(17)(15)p13------------------
G-------------------------------------------------------------------
D-------------------------------------------------------------------
A-------------------------------------------------------------------
E-------------------------------------------------------------------


e-------------------------------------------------------------------
H-------------------------------------------------------------------
G-5h7(9)------(9)(7)p5-----5'---------------------------------------
D----------------------7--------------------------------------------
A-------------------------------------------------------------------
E-------------------------------------------------------------------


e-8-------8-------8-------8-------8-------8-------------------------
H---6-6-6---6-6-6---6-6-6---6-6-6---6-6-6---6-6-6-------------------
G-------------------------------------------------5---7---5---7(9)--
D-------------------------------------------------------------------
A-------------------------------------------------------------------
E-------------------------------------------------------------------



20121123

BON BON VÁLASSZ ENGEM TAB (SZÓLÓ)


e-------------------------------------------------------------------
H-------------------------------------------------------------------
G------8-9-11/13.---8.--9--------9-11p9\8---------------------------
D-9/11--------------9.--11----------------11-9----11----------------
A----------------------------------------------11-------------------
E-------------------------------------------------------------------


e-------------------9--9----9.---7.---------------------------------
H----------------12-10-10.--10.--9.--7h9p7--------------------------
G------8-9-11/13---------------------------9------------------------
D-9/11--------------------------------------------------------------
A-------------------------------------------------------------------
E-------------------------------------------------------------------


e-12---------------12------11-\--------------------------9----------
H-12h14---p12------12h14.--12-\---------------------12.--10---------
G-------------14.-----------------------8-9-11/13-------------------
D----------------------------------9/11-----------------------------
A-------------------------------------------------------------------
E-------------------------------------------------------------------


e-14h15p14p12-12.-----12--------------------------------------------
H------------------14.-----14p12------------------------------------
G--------------------------------13\11-9----------------------------
D-------------------------------------------------------------------
A-------------------------------------------------------------------
E-------------------------------------------------------------------


e-------------12-9h12p9---------------------------------------------
H-9-10.--10-------------10------------------------------------------
G-9-11.--11----------------9\6--------------------------------------
D------------------------------7------------------------------------
A-------------------------------------------------------------------
E-------------------------------------------------------------------


e-12---------------12-----------------------------------------------
H-12h14---p12------12h14.--12-----12p10p9---------------------------
G-------------14.------------------------11p9p8---------------------
D----------------------------------------------11p9-----------------
A-------------------------------------------------------------------
E-------------------------------------------------------------------



20121115

REPUBLIC HA ITT LENNÉL VELEM TAB (SZÓLÓ)



e---------------------------------------------10.-------------------
H---------------------10-12(13)---12.--10.--------12.---12----------
G-7.--7~--\-----/11.------------------------11--------11---12\11-10.
D-------------------------------------------------------------------
A-------------------------------------------------------------------
E-------------------------------------------------------------------


e-------------------------------------------------------------------
H-------------------------------------------------------------------
G-9p7\6.-7p6----------------7---------------------------------------
D------------7-----7.---------9.---9-7/9-7~-------------------------
A--------------9.------10\9-----------------9-7h8p7\5-7-7(8)(7)p5.--
E-------------------------------------------------------------------


e------------------------------7.-----------------------------------
H---------7-8p7-10.---(12)(10)------10------------------------------
G-9(11)-------------------------------------------------------------
D-------------------------------------------------------------------
A-------------------------------------------------------------------
E-------------------------------------------------------------------


e-10.--10p9------7.------------------------------10-----------------
H-----------10.-----10p7-----------------------10---12.--10~--------
G------------------------10p9p7---9---7h9h10/11---------------------
D-------------------------------9---9-------------------------------
A-------------------------------------------------------------------
E-------------------------------------------------------------------


e-------------------------------------------------------------------
H-8-10-10------10------10-------------------------------------------
G------9(11).--9(11).--9(11)-9-7.-----------------------------------
D-----------------------------------9.-7.---------------------------
A-----------------------------------------9\7--5-7(8).-7.-5---5~----
E-----------------------------------------------------------7----7\-


e----------------17.-------------------14-17.-16.-15p14--14-------14
H----15.-17(19).----(19)(17)p15---15-17----------------17-------15--
G-/16---------------------------16-------------------------14-16----
D-------------------------------------------------------------------
A-------------------------------------------------------------------
E-------------------------------------------------------------------


e--------14---------------------------------------------------------
H------15-----------------------------------------------------------
G-14-16-------------------------------------------------------------
D-------------------------------------------------------------------
A-------------------------------------------------------------------
E-------------------------------------------------------------------



20121112

GITANO SEMMI NEM ELÉG TAB



Refr/intro

e-4-------4-------6-------4-------4-------4-------6-------4---------
H-5-------4-------8-------4-------5-------4-------8-------4---------
G-6-------4-------6-------4-------6-------4-------6-------4---------
D-6-------6-------8-------6-------6-------6-------8-------6---------
A-4-------6-------6-------6-------4-------6-------6-------6---------
E---------4---------------4---------------4---------------4---------


Verse

e-4---------------6---------------4-------6-------4-----------------
H-4---------------6---------------5-------8-------4-----------------
G-4---------------7---------------6-------6-------4-----------------
D-6---------------6---------------6-------8-------6-----------------
A-6---------------8---------------4-------6-------6-----------------
E-4---------------6-------------------------------4-----------------


e-4---------------4---------------4-------4-------6-7-6-7-6-7-6-7-6\
H-5---------------4---------------5-------6-------8-9-8-9-8-9-8-9-8\
G-6---------------4---------------6-------4-------6-7-6-7-6-7-6-7-6\
D-6---------------6---------------6-------6-------8-9-8-9-8-9-8-9-8\
A-4---------------6---------------4-------5-------------------------
E-----------------4-------------------------------------------------


intro

e-------------------------------------------------------------------
H-------------12-14-14(16)---------14p12-14----12-14-12~----14.-----
G-------11h13-------------------------------13----------------------
D-11h13-------------------------------------------------------------
A-------------------------------------------------------------------
E-------------------------------------------------------------------


e-------------------------------------------------------------------
H-14(16)-14-12----12~-----------14(16)-14-12----12~-----------------
G--------------13------13p11-----------------13------13p11----------
D----------------------------13----------------------------13-------
A-------------------------------------------------------------------
E-------------------------------------------------------------------


e-------------------------------------------------------------------
H-------------------------------------------------------------------
G-------------------------------------------------------------------
D-13\11p9-11----9-11-9~---------------------------------------------
A------------11----------11\----------------------------------------
E-------------------------------------------------------------------



e-11h12.--12.--12p11------------------------------------------------
H--------------------14p12-14(16).-----------14--p12----------------
G----------------------------------------------------13~------------
D-------------------------------------------------------------------
A-------------------------------------------------------------------
E-------------------------------------------------------------------


e------------------------------------------14-----------------------
H-12h14---14---14---12h14---12---11---12--------12---11-------------
G---------------------------------------------------------13\-------
D-------------------------------------------------------------------
A-------------------------------------------------------------------
E-------------------------------------------------------------------


e-11h12---12---12---11(12)(11)--------------------------------------
H------------------------------14---12-14(16)---14(16)(14)-12~--\---
G-------------------------------------------------------------------
D-------------------------------------------------------------------
A-------------------------------------------------------------------
E-------------------------------------------------------------------


e-------------------------------------------------------------------
H-12h14---14---14---14-14p12-11~------------------------------------
G---------------------------------13\-------------------------------
D--------------------------------------------------------4h6--------
A-------------------------------------------------------------------
E------------------------------------------------------------4------


Szóló

e-19(21)---19(21)---19(21)---19(21)---19(21)(19)-16-16---19.--------
H-------------------------------------------------------------------
G-------------------------------------------------------------------
D-------------------------------------------------------------------
A-------------------------------------------------------------------
E-------------------------------------------------------------------


e---------------------11--------------------------------------------
H-14(16)(14)-12-12-14----12~--------------------12---14-------------
G-----------------------------13~-\-------/13-----------------------
D-------------------------------------------------------------------
A-------------------------------------------------------------------
E-------------------------------------------------------------------


e-------------------------------------------------------------------
H-14(16)(14)p12--14(16)(14)p12--14(16)(14)p12--14(16)-14.-12.-------
G-------------------------------------------------------------------
D-------------------------------------------------------------------
A-------------------------------------------------------------------
E-------------------------------------------------------------------


e-------------------------------------------------------------------
H-14(16)-14.-12.--14(16)-14.-12.--14(16)-14.-12.--14(16)-14.-12.----
G-------------------------------------------------------------------
D-------------------------------------------------------------------
A-------------------------------------------------------------------
E-------------------------------------------------------------------


e-------------------------------------------------------------------
H-14(16)-14.-12.--14(16)-14.-12.------------------------------------
G-------------------------------------------------------------------
D-------------------------------------------------------------------
A-------------------------------------------------------------------
E-------------------------------------------------------------------


e-21(23)------21(23)------21(23)---21(23)-21(23)--(21)-19-19-----21'
H-------------------------------------------------------------21----
G-------------------------------------------------------------------
D-------------------------------------------------------------------
A-------------------------------------------------------------------
E-------------------------------------------------------------------


Intro/Refr és Verse akkordok

C#m G#m Eb7 G#m

G#m B7 C#m Eb7 G#m  C#m G#m C#m D(szűk) Eb7 E7 Eb7 E7.....



20121108

BIKINI ADJ HELYET MAGAD MELLETT TAB (SZÓLÓ)


e-------------------------------------------------------------------
H-------------------------------------------------------------------
G-2-4-4/5~---5-4-2---/11~--------11-11-10~-------10(12)---10-9~-----
D-------------------------------------------------------------------
A-------------------------------------------------------------------
E-------------------------------------------------------------------


e---------------8-7-------------------------------------------------
H----------10-8-----8-----------------------------------------------
G------9-7------------7~---------/4---4-4---4/5---4-2---------------
D-10-7--------------------------------------------------------------
A-------------------------------------------------------------------
E-------------------------------------------------------------------


e-------------------------------------------------------------------
H-------------------------------------------------------------------
G-/9~-------7---5-5/7~----------7-7~----7h9-------------------------
D---------------------------------------------10-9-7~---------------
A-------------------------------------------------------------------
E-------------------------------------------------------------------


e-------------------------------------------------------------------
H-------------------------------------------------------------------
G-2-4-4/5~---5-4-2---/4---0---<5>---<12>---/4---4-4---4/5---4-2~----
D-------------------------------------------------------------------
A-------------------------------------------------------------------
E-------------------------------------------------------------------