A következő címkéjű bejegyzések mutatása: gitártab. Összes bejegyzés megjelenítése
A következő címkéjű bejegyzések mutatása: gitártab. Összes bejegyzés megjelenítése

20121106

HOOLIGANS MENJ TOVÁBB TAB



verse

  Em      G       Em      G   D    Em      G       Em      G   D   

e-3-------3-------3-------3---2----3-------3-------3-------3---2----
H-0-------0-------0-------0---3----0-------0-------0-------0---3----
G-0-------0-------0-------0---2----0-------0-------0-------0---2----
D-2-------0-------2-------0---0----2-------0-------2-------0---0----
A-2-------2-------2-------2---0----2-------2-------2-------2---0----
E-0-------3-------0-------3--------0-------3-------0-------3--------


Bridge

  C       Em      C       Em      C       Em      A       D7

e-3-------3-------3-------3-------3-------3-------0-------2---------
H-1-------0-------1-------0-------1-------0-------2-------1---------
G-0-------0-------0-------0-------0-------0-------2-------2---------
D-2-------2-------2-------2-------2-------2-------2-------0---------
A-3-------2-------3-------2-------3-------2-------0-------0---------
E---------0---------------0---------------0-------------------------


Refr

  G   Hm  C   D   G   Hm  C   D   G   H   C   D   G   Hm  C   D  

e-3---2---0---2---3---2---0---2---3---2---0---2---3---2---0---2-----
H-0---3---1---3---0---3---1---3---0---4---1---3---0---3---1---3-----
G-0---4---0---2---0---4---0---2---0---4---0---2---0---4---0---2-----
D-0---4---2---0---0---4---2---0---0---4---2---0---0---4---2---0-----
A-2---2---3---0---2---2---3---0---2---2---3---0---2---2---3---0-----
E-3---------------3---------------3---------------3-----------------


Szóló

e-------------------------------------------------------------------
H--------------------------------------15(17)------15~--------------
G-/12---12---12-12-11.--12.-12h14-----------------------------------
D-------------------------------------------------------------------
A-------------------------------------------------------------------
E-------------------------------------------------------------------


e----15---15--15--15--15--15.--17(19)-------------------------------
H-/15--15---15--15--15--15----------------15(17)--15(17).--15-------
G-------------------------------------------------------------------
D-------------------------------------------------------------------
A-------------------------------------------------------------------
E-------------------------------------------------------------------


e------------------11--------11-11-11h12----------------------------
H-------------12----------------------------------------------------
G-/12p11-12---------------------------------------------------------
D-------------------------------------------------------------------
A-------------------------------------------------------------------
E-------------------------------------------------------------------


e-------------------------------------------------------------------
H-/15------15-------------------------------------------------------
G-/14(16)--14(16)--14(16)(14)-12----------------12-12---------------
D----------------------------------------12h14----------------------
A-------------------------------------------------------------------
E-------------------------------------------------------------------


e--------------12--------12---------------------15------------------
H-----------------------------------------------15-15---------------
G-12-12-14(16)----14(16)----14(16)-------14(16)-------(16)(14)--12--
D-------------------------------------------------------------------
A-------------------------------------------------------------------
E-------------------------------------------------------------------



HOOLIGANS KIRÁLYLÁNY TAB (INTRO)


e-------------------------------------------------------------------
H-------------------------------------------------------------------
G-------------------------------------------------------------------
D---------5-------------------------------5----------7/9------------
A-5/7--------7---x-x-7-------5----5/7--------7---x-x-----5~---------
E------7-----------------5h7-----------7----------------------------


e-------------------------------------------------------------------
H-------------------------------------------------------------------
G-------------------------------------------------------------------
D---------5-------------------------------5----------7/9------------
A-5/7--------7---x-x-7-------5----5/7--------7---x-x-----5~---------
E------7-----------------5h7-----------7----------------------------


e-------------------------------------------------------------------
H-------------------------------------------------------------------
G-------------------------------------------------------------------
D---------5-------------------------------5----------7/9------------
A-5/7--------7---x-x-7-------5----5/7--------7---x-x-----5~---------
E------7-----------------5h7-----------7----------------------------


e-------------------------------------------------------------------
H-------------------------------------------------------------------
G-------------------------------------12h14-----12h14-----14/16--12-
D---------5----------------------12h14-----12h14-----12/14----------
A-5/7--------7---x-x-7-------5--------------------------------------
E------7-----------------5h7----------------------------------------



KÁRPÁTIA SZÉKELYHIMNUSZ TAB



fő dallam
(gitár 1)
e-------------------------------------------------------------------
H-------------------------------------------------------------------
G---------------------------5~-5~-----------------------------------
D-5-----5--7~-7~-5-5-----5------------------------------------------
A----7----------------7---------------------------------------------
E-------------------------------------------------------------------


e-------------------------------------------------------------------
H----------------------6--------------------------------------------
G----5--7--7(9)--7(9)-----7--5--4--5~-------------------------------
D-5-----------------------------------------------------------------
A-------------------------------------------------------------------
E-------------------------------------------------------------------




(gitár 2)
e-------------------------------------------------------------------
H---------------------------13~13~----------------------------------
G-12----12-14~14~1212----12-----------------------------------------
D----14---------------14--------------------------------------------
A-------------------------------------------------------------------
E-------------------------------------------------------------------


e-----------------------13------------------------------------------
H----13-15-15(17)15(17)----15-13-12-13~-----------------------------
G-12----------------------------------------------------------------
D-------------------------------------------------------------------
A-------------------------------------------------------------------
E-------------------------------------------------------------------



(gitár 1)
e-------------------------------------------------------------------
H-------------------------------------------------------------------
G---------------------------5~-5~-----------------------------------
D-5-----5--7~-7~-5-5-----5------------------------------------------
A----7----------------7---------------------------------------------
E-------------------------------------------------------------------


e-------------------------------------------------------------------
H----------------------6--------------------------------------------
G----5--7--7(9)--7(9)-----7--5--4--5~-------------------------------
D-5-----------------------------------------------------------------
A-------------------------------------------------------------------
E-------------------------------------------------------------------



(gitár 2)
e-------------------------------------------------------------------
H---------------------------13~13~----------------------------------
G-12----12-14~14~1212----12-----------------------------------------
D----14---------------14--------------------------------------------
A-------------------------------------------------------------------
E-------------------------------------------------------------------


e-----------------------13------------------------------------------
H----13-15-15(17)15(17)----15-13-12-13~-----------------------------
G-12----------------------------------------------------------------
D-------------------------------------------------------------------
A-------------------------------------------------------------------
E-------------------------------------------------------------------



(gitár 1)
e-------------------------------------------------------------------
H-------------------------------------------------------------------
G------------------5--5--4------------------------------------------
D----------7~--7~-----------7---------------------------------------
A-7--7--7----------------------7~--7~-------------------------------
E-------------------------------------------------------------------


e-------------------------------------------------------------------
H-------------------------------------------------------------------
G-------------------------------------------------------------------
D-----------7~--7~--5--7--5-----------------------------------------
A-7--7--7--------------------8--7~----------------------------------
E-------------------------------------------------------------------


(gitár 2)
e-------------------------------------------------------------------
H------------------13-13-12-----------------------------------------
G----------14~-14~----------14--------------------------------------
D-14-14-14---------------------14~-14~------------------------------
A-------------------------------------------------------------------
E-------------------------------------------------------------------


e-------------------------------------------------------------------
H-------------------------------------------------------------------
G-----------14~-14~-12-14-12----------------------------------------
D-14-14-14-------------------15--14~--------------------------------
A-------------------------------------------------------------------
E-------------------------------------------------------------------



(gitár 1)
e-------------------------------------------------------------------
H-------------------------------------------------------------------
G---------------------------5~-5~-----------------------------------
D-5-----5--7~-7~-5-5-----5------------------------------------------
A----7----------------7---------------------------------------------
E-------------------------------------------------------------------


e-------------------------------------------------------------------
H----------------------6--------------------------------------------
G----5--7--7(9)--7(9)-----7--5--4--5~-------------------------------
D-5-----------------------------------------------------------------
A-------------------------------------------------------------------
E-------------------------------------------------------------------


(gitár 2)
e-------------------------------------------------------------------
H---------------------------13~13~----------------------------------
G-12----12-14~14~1212----12-----------------------------------------
D----14---------------14--------------------------------------------
A-------------------------------------------------------------------
E-------------------------------------------------------------------


e-----------------------13------------------------------------------
H----13-15-15(17)15(17)----15-13-12-13~-----------------------------
G-12----------------------------------------------------------------
D-------------------------------------------------------------------
A-------------------------------------------------------------------
E-------------------------------------------------------------------



akkordbontás
e--------0---------0--------0---------0-----------------------------
H---1---------1--------1---------1----------------------------------
G------2---------0--------2---------2-------------------------------
D-------------------------------------------------------------------
A-0---------3--------0---------0------------------------------------
E-------------------------------------------------------------------
  Am        C        Am        Am       


e-------0---------1---------0---------0-----------------------------
H--1---------1---------1---------1----------------------------------
G-----0---------2---------0---------0-------------------------------
D-----------3-------------------------------------------------------
A-3-------------------3---------3-----------------------------------
E-------------------------------------------------------------------
  C         F         C         C



e--------0---------0--------0---------0-----------------------------
H---1---------1--------1---------1----------------------------------
G------2---------0--------2---------2-------------------------------
D-------------------------------------------------------------------
A-0---------3--------0---------0------------------------------------
E-------------------------------------------------------------------
  Am        C        Am        Am      


e--------0---------1---------0--------------------------------------
H---1---------1---------1-------------------------------------------
G------0---------2---------0----------------------------------------
D-----------3-------------------------------------------------------
A-3-------------------3---------------------------------------------
E-------------------------------------------------------------------
  C         F         C        


Torzítós rész

e-------------------------------------------------------------------
H-------------------------------------------------------------------
G-------2---2---5---5-----------------2---2-----------5---5-------5-
D-2-2-2-2---2---5---5---2---2---2-2-2-2---2---5---5---5---5-------5-
A-2-2-2-0---0---3---3---2---2---2-2-2-0---0---5---5---3---3-------3-
E-0-0-0-----------------0---0---0-0-0---------3---3-----------------


e-------------------------------------------------------------------
H-------------------------------------------------------------------
G-2---2---5---5-----------------5---5---7---7---5---5---------------
D-2---2---5---5---3---3---3-3-3-5---5---7---7---5---5---------------
A-0---0---3---3---3---3---3-3-3-3---3---5---5---3---3---------------
E-----------------1---1---1-1-1-------------------------------------



EDDA ELHAGYOM A VÁROST TAB (SZÓLÓ)



e-------------------------------------------------------------------
H-------------------------------------------------------------------
G-2(3)(2)-0----------------0-2(3)(2)-0------------------------------
D----------3/5~-----------------------3/5~--------------------------
A-------------------------------------------------------------------
E-------------------------------------------------------------------


e-------------------------------------------------------------------
H-------------------------------------------------------------------
G-0.-3.-5(7).-5.-3(5)(3)(5)(3)(5)(3)~~------------------------------
D-------------------------------------------------------------------
A-------------------------------------------------------------------
E-------------------------------------------------------------------


e-------------------------------------------------------------------
H-----------3''''(5)~~-----------------5'''(7)~--5(7)-5(7)~~----/---
G-2(3)(2)-0----------------0-2(3)(2)-0------------------------------
D-------------------------------------------------------------------
A-------------------------------------------------------------------
E-------------------------------------------------------------------


e---------10---------------------------------8----------------------
H-10''(12)---(12)(10)-8.--10.-8-8-8~--\-----------------------------
G------------------------------9-9--------/9--9~--------------------
D-------------------------------------------------------------------
A-------------------------------------------------------------------
E-------------------------------------------------------------------


e------------6------------------------------------------------------
H---4.-(8)(6)--(8)(6)-4---------------------------/3----------------
G-5.-----------------------------2(3)(2)-0-2-----0--4~---2.-0~------
D--------------------------------------------2-0--------------------
A-------------------------------------------------------------------
E-------------------------------------------------------------------



fillek
       0:50                                        0:57
e---------------------------10--------------------------------------
H---(12)\(10)-10.-8.--10(12)----------------(17)(15)-12-------------
G-------------------------------------------------------14(16)-14~--
D-------------------------------------------------------------------
A-------------------------------------------------------------------
E-------------------------------------------------------------------

        1:04                         1:49                    
e-10----------------------------------------------------------------
H---(12)(10)-8~-----------------------------------------------------
G-------------------------------(16)(14)-12.-12~--------------------
D-------------------------------------------------------------------
A-------------------------------------------------------------------
E-------------------------------------------------------------------


      1:54
e-------------------------------------------------------------------
H-------------------------------------------------------------------
G-(7)(5)p3.-5.-3.-5'''(7)~~-----------------------------------------
D-------------------------------------------------------------------
A-------------------------------------------------------------------
E-------------------------------------------------------------------



      2:01                                  2:15               
e--------------10---------------------------------------------------
H-----8--10(12)--(12)(10)-8-8~--------------------------------------
G-7h9----------------------9--------------3-------------------------
D------------------------------------------5~-----------------------
A-------------------------------------------------------------------
E-------------------------------------------------------------------


      2:23                                     2:28
e-------------------------------------------------------------------
H-----------------------------------15-12---------------------------
G-(7)(5)-3-5'''(7)------------------------14(16)(14)-12.-12~--------
D-------------------------------------------------------------------
A-------------------------------------------------------------------
E-------------------------------------------------------------------



P BOX VÁGTASS VELEM TAB



intro

e-------------------------------------------------------------------
H----------------------------------------------10--------8-10-------
G-------------------------10-9-------------------9-----9------------
D---------9-10-------9-10----------------9-10-----9-10--------------
A-12--12--------12---------------12--12-----------------------------
E-------------------------------------------------------------------


e-------------------------------------------------------------------
H----------------------------------------------10--------8-10-------
G-------------------------10-9-------------------9-----9------------
D---------9-10-------9-10----------------9-10-----9-10--------------
A-12--12--------12---------------12--12-----------------------------
E-------------------------------------------------------------------



Verse

e-------------------------------------------------------------------
H-------------------------------------------------------------------
G-------------------------------------------------------------------
D-14-14-14-14-14-14-14-14-14-14-14-14-14-14-14-14-------------------
A-12-12-12-12-12-12-12-12-12-12-12-12-12-12-12-12-------------------
E-------------------------------------------------------------------
  x  x  x  x  x  x  x  x  x  x  x  x  x  x  x  x 

e-------------------------------------------------------------------
H-------------------------------------------------------------------
G-------------------------------------------------------------------
D-14-14-14-14-14-14-14---10-10-10/12-12-12--------------------------
A-12-12-12-12-12-12-12---8--8--8-/10-10-10--------------------------
E-------------------------------------------------------------------
  x  x  x  x  x  x  x 



bridge

e-------------------------------------------------------------------
H-------------------------------------------------------------------
G-------------------------------------------------------------------
D------------------------7--9---5--7---3--5-------------------------
A-8--10---7--8---5--7-----------------------------------------------
E-------------------------------------------------------------------


Refr

e-------------------------------------------------------------------
H-------------------------------------------------------------------
G-------------------------------------------------------------------
D-----------------------------2h3-----------------------------------
A-------------------------------------------------------------------
E-0-0-0-0-0-0-0-0-0-0-0-0-0-0---------------------------------------
  x x x x x x x x x x x x x x
 

e-------------------------------------------------------------------
H-------------------------------------------------------------------
G-------------------------------------------------------------------
D-2---------------------------3h5-----------------------------------
A-------------------------------------------------------------------
E---0-0-0-0-0-0-0-0-0-0-0-0-0---------------------------------------
    x x x x x x x x x x x x x

e-------------------------------------------------------------------
H-------------------------------------------------------------------
G-------------------------------------------------------------------
D-2---------------------------2h3-----------------------------------
A-------------------------------------------------------------------
E---0-0-0-0-0-0-0-0-0-0-0-0-0---------------------------------------
    x x x x x x x x x x x x x

e-------------------------------------------------------------------
H-------------------------------------------------------------------
G-------------------------------------------------------------------
D-2-------------------2--3--5---------------------------------------
A-------------------------------------------------------------------
E---0-0-0-0-0-0-0-0-0-----------------------------------------------
    x x x x x x x x x



ALVIN ÉS A MÓKUSOK - VISSZA A KŐKORSZAKBA TAB (AKUSZTIK)



INTRO

e-1-------0-------1-------0-------0---------------0-----------------
H-----------------------------------------3---------------3---------
G-----2-------2-------2-------0-------0-------0-------0-------0-----
D-0---------------0-------------------------------------------------
A---------------------------------3---------------3-----------------
E-------------------------------------------------------------------


e-------------------------------------------------0-----------------
H-3-------3-------3-------3-------2-------2-------3-----/-5---------
G-----0-------0-------0-------0-------0-------0-------0-------0-----
D-------------------------------------------------------------------
A-1-------------------------------0---------------------------------
E-------------------------------------------------------------------


e-1-------0-------1-------0-------0---------------0-----------------
H-----------------------------------------3---------------3---------
G-----2-------2-------2-------0-------0-------0-------0-------0-----
D-0---------------0-------------------------------------------------
A---------------------------------3---------------3-----------------
E-------------------------------------------------------------------


e-------------------------------------------------0-----------------
H-3-------3-------3-------3-------2-------2-------3-----/-5---------
G-----0-------0-------0-------0-------0-------0-------0-------0-----
D-------------------------------------------------------------------
A-1-------------------------------0---------------------------------
E-------------------------------------------------------------------


e-----------------1-------0-------1-------0-------1-------0---------
H---------3---------------------------------------------------------
G-----2-------2-------2-------2-------2-------2-------2-------2-----
D-0-----------------------------------------------------------------
A-------------------------------------------------------------------
E-------------------------------------------------------------------


e---------0-------1-------0-------1-------0-------0-----------------
H-------------------------------------------------3-----------------
G-----2-------2-------2-------2-------2-------2---2-----------------
D-------------------------------------------------0-----------------
A-0-------------------------------1---------------------------------
E-------------------------------------------------------------------


VERSE 1

(az intro eleje 4x)


REFR AKKORDOK

e-1-------0-------1-------0-------1-------0-------1.----------------
H-3-------2-------3-------1-------3-------2-------3.----------------
G-3-------2-------2-------0-------3-------2-------2.----------------
D-3-------2-------0-------2-------3-------2-------0.----------------
A-1-------0---------------3-------1-------0-------------------------
E-------------------------------------------------------------------


e-1-------0-------1-------0-------1-------0-------------------------
H-3-------2-------3-------1-------3-------2-------------------------
G-3-------2-------2-------0-------3-------2-------------------------
D-3-------2-------0-------2-------3-------2-------------------------
A-1-------0---------------3-------1-------0-------------------------
E-------------------------------------------------------------------

(figyelem itt megfordul!!!)
e---------1-------0-------1-------0-------1-------0-------1---------
H-------------------------------------------------------------------
G-----2-------2-------2-------2-------2-------2-------2-------2-----
D-0-----------------------------------------------------------------
A-------------------------------------------------------------------
E-------------------------------------------------------------------

(itt meg olyan mint az eredeti)
e---------0-------1-------0-------1-------0-------1-----------------
H-------------------------------------------------3-----------------
G-----2-------2-------2-------2-------2-------2---2-----------------
D-------------------------------------------------0-----------------
A-0-----------------------------------------------------------------
E-------------------------------------------------------------------



VERSE 2

egyik gitár a köv. akkordokat "darálja" :)

e-0-------0-------1-------0-----------------------------------------
H-3-------1-------3-------2-----------------------------------------
G-2-------0-------3-------2-------- ez elmegy 2x -------------------
D-0-------2-------3-------2-----------------------------------------
A---------3-------1-------0-----------------------------------------
E-------------------------------------------------------------------


(a másik gitár pötyörészik egy ilyet)

e-------1---0-1.---------1---0-1.---------1---0-1.---------1---0-1--
H-3-3-x------------1-1-x--------------------------------------------
G-----------------------------------3-3-x------------2-2-x----------
D-------------------------------------------------------------------
A-------------------------------------------------------------------
E-------------------------------------------------------------------


REFR 2 (ua. mint refr 1)

VERSE 1 2x (Itt nincs szöveg)

VÉGJÁTÉK

e-0-------1-------0-------0-----------------------------------------
H-3-------3-------1-------2-----------------------------------------
G-2-------3-------0-------2----------- 4 körön át-------------------
D-0-------3-------2-------2-----------------------------------------
A---------1-------3-------0-----------------------------------------
E-------------------------------------------------------------------


e-------------------------------------------------------------------
H-3--------------------------3.-------------------------------------
G-2--------------------------2.-------------------------------------
D-0--------------------------0.-------------------------------------
A-------------------------------------------------------------------
E-------------------------------------------------------------------



SUPERNEM ZSEBRE DUGOTT KÉZZEL TAB


intro

e-------------------------------------------------------------------
H-3---3------3.---3---3------3.---3---3------3.---3---3------3.-----
G-3---3-5.---3.-5-3---3-5.---3.-5-3---3-5.---3.-5-3---3-5.---3.-5---
D-3---3-3.---3.-3-3---3-3.---3.-3-3---3-3.---3.-3-3---3-3.---3.-3---
A-------------------------------------------------------------------
E-------------------------------------------------------------------


e-------------------------------------------------------------------
H-3---3------3.---3---3------3.---3---3------3.---3---3------3.-----
G-3---3-5.---3.-5-3---3-5.---3.-5-3---3-5.---3.-5-3---3-5.---3.-5---
D-3---3-3.---3.-3-3---3-3.---3.-3-3---3-3.---3.-3-3---3-3.---3.-3---
A-------------------------------------------------------------------
E-------------------------------------------------------------------


e-------------------------------------------------------------------
H-3---3------3.---3---3------3.---3---3------3.---3---3------3-3----
G-3---3-5.---3.-5-3---3-5.---3.-5-3---3-5.---3.-5-3---3-5.---3-3-5--
D-3---3-3.---3.-3-3---3-3.---3.-3-3---3-3.---3.-3-3---3-3.---3-3-3--
A-------------------------------------------------------------------
E-------------------------------------------------------------------


Verse

e-------------------------------------------------------------------
H-------------------------------------------------------------------
G-------------------------------------------------------------------
D-8-8-8-8-8-8-8-8-8-8-8-8-8-8-8-8-10101010101010101010101010101010--
A-8-8-8-8-8-8-8-8-8-8-8-8-8-8-8-8-8-8-8-8-8-8-8-8-8-8-8-8-8-8-8-8---
E-6-6-6-6-6-6-6-6-6-6-6-6-6-6-6-6-8-8-8-8-8-8-8-8-8-8-8-8-8-8-8-8---
  x x x x x x x x x x x x x x x x x x x x x x x x x x x x x x x x 

e-------------------------------------------------------------------
H-------------------------------------------------------------------
G----------------------------------8-8-8-8-8-8-8-8-8-8-8-8-8-8-8-8--
D-10101010101010101010101010101010-8-8-8-8-8-8-8-8-8-8-8-8-8-8-8-8--
A-8-8-8-8-8-8-8-8-8-8-8-8-8-8-8-8--6-6-6-6-6-6-6-6-6-6-6-6-6-6-6-6--
E-10101010101010101010101010101010----------------------------------
  x x x x x x x x x x x x x x x x  x x x x x x x x x x x x x x x x


e-------------------------------------------------------------------
H-3---3------3.---3---3------3.---3---3------3.---3---3------3.-----
G-3---3-5.---3.-5-3---3-5.---3.-5-3---3-5.---3.-5-3---3-5.---3.-5---
D-3---3-3.---3.-3-3---3-3.---3.-3-3---3-3.---3.-3-3---3-3.---3.-3---
A-------------------------------------------------------------------
E-------------------------------------------------------------------


e-------------------------------------------------------------------
H-3---3------3.---3---3------3.---3---3------3.---4-----------------
G-3---3-5.---3.-5-3---3-5.---3.-5-3---3-5.---3.-5-3-----------------
D-3---3-3.---3.-3-3---3-3.---3.-3-3---3-3.---3.-3-3-----------------
A-------------------------------------------------------------------
E-------------------------------------------------------------------


Refr

e-------------------------------------------------------------------
H-------------------------------------------------------------------
G-3.------------------------------5---5-5-5-5-5-5-5-5-5-5-5-5-5-5---
D-3.------------------------------5---5-5-5-5-5-5-5-5-5-5-5-5-5-5---
A-1.------------------------------3---3-3-3-3-3-3-3-3-3-3-3-3-3-3---
E-------------------------------------------------------------------
                                      x x x x x x x x x x x x x x

e-------------------------------------------------------------------
H-------------------------------------------------------------------
G-8---8-8-8-8-8-8---8---8-8-8-8-8-8---8---8-8-8-8-8-8---8---8-8-8---
D-8---8-8-8-8-8-8---8---8-8-8-8-8-8---8---8-8-8-8-8-8---8---8-8-8---
A-6---6-6-6-6-6-6---6---6-6-6-6-6-6---6---6-6-6-6-6-6---6---6-6-6---
E-------------------------------------------------------------------
      x x x x x         x x x x x         x x x x x         x x x

e-------------------------------------------------------------------
H-------------------------------------------------------------------
G-3---3-3-3-3-3-3-3-3-3-3-3-3-3-3-5---5-5-5-5-5-5-5-5-5-5-5-5-5-5---
D-3---3-3-3-3-3-3-3-3-3-3-3-3-3-3-5---5-5-5-5-5-5-5-5-5-5-5-5-5-5---
A-1---1-1-1-1-1-1-1-1-1-1-1-1-1-1-3---3-3-3-3-3-3-3-3-3-3-3-3-3-3---
E-------------------------------------------------------------------
      x x x x x x x x x x x x x x     x x x x x x x x x x x x x x

e-------------------------------------------------------------------
H-------------------------------------------------------------------
G-8---8-8-8-8-8-8---8---8-8-8-8-8-8---8---8-8-8-8-8-8---8---8-------
D-8---8-8-8-8-8-8---8---8-8-8-8-8-8---8---8-8-8-8-8-8---8---8-------
A-6---6-6-6-6-6-6---6---6-6-6-6-6-6---6---6-6-6-6-6-6---6---6-------
E-------------------------------------------------------------------
      x x x x x         x x x x x         x x x x x         


Refr 2

e-------------------------------------------------------------------
H-------------------------------------------------------------------
G-3.------------------------------5---5-5-5-5-5-5-5-5-5-5-5-5-5-5---
D-3.------------------------------5---5-5-5-5-5-5-5-5-5-5-5-5-5-5---
A-1.------------------------------3---3-3-3-3-3-3-3-3-3-3-3-3-3-3---
E-------------------------------------------------------------------
                                      x x x x x x x x x x x x x x

e-------------------------------------------------------------------
H-------------------------------------------------------------------
G-8---8-8-8-8-8-8---8---8-8-8-8-8-8---8---8-8-8-8-8-8---8---8-8-8---
D-8---8-8-8-8-8-8---8---8-8-8-8-8-8---8---8-8-8-8-8-8---8---8-8-8---
A-6---6-6-6-6-6-6---6---6-6-6-6-6-6---6---6-6-6-6-6-6---6---6-6-6---
E-------------------------------------------------------------------
      x x x x x         x x x x x         x x x x x         x x x

e-------------------------------------------------------------------
H-------------------------------------------------------------------
G-3---3-3-3-3-3-3-3-3-3-3-3-3-3-3-5---5-5-5-5-5-5-5-5-5-5-5-5-5-5---
D-3---3-3-3-3-3-3-3-3-3-3-3-3-3-3-5---5-5-5-5-5-5-5-5-5-5-5-5-5-5---
A-1---1-1-1-1-1-1-1-1-1-1-1-1-1-1-3---3-3-3-3-3-3-3-3-3-3-3-3-3-3---
E-------------------------------------------------------------------
      x x x x x x x x x x x x x x     x x x x x x x x x x x x x x

e-------------------------------------------------------------------
H-------------------------------------------------------------------
G-8---8-8-8-8-8-8---8---8-8-8-8-8-8---8---8-8-8-8-8-8---8---8-------
D-8---8-8-8-8-8-8---8---8-8-8-8-8-8---8---8-8-8-8-8-8---8---8-------
A-6---6-6-6-6-6-6---6---6-6-6-6-6-6---6---6-6-6-6-6-6---6---6-------
E-------------------------------------------------------------------
      x x x x x         x x x x x         x x x x x         


e-------------------------------------------------------------------
H-------------------------------------------------------------------
G---------------------------------5---5---5-5-5-5---5-5-5---5-5-5---
D-5---5---5-5-5-5---5-5-5---5-5-5-5---5---5-5-5-5---5-5-5---5-5-5---
A-5---5---5-5-5-5---5-5-5---5-5-5-3---3---3-3-3-3---3-3-3---3-3-3---
E-3---3---3-3-3-3---3-3-3---3-3-3-----------------------------------


e-------------------------------------------------------------------
H-------------------------------------------------------------------
G-8---8---8-8-8-8---8-8-8---8-8-8-8---8---8-8-8-8---8-8-8---8-8-8---
D-8---8---8-8-8-8---8-8-8---8-8-8-8---8---8-8-8-8---8-8-8---8-8-8---
A-6---6---6-6-6-6---6-6-6---6-6-6-6---6---6-6-6-6---6-6-6---6-6-6---
E-------------------------------------------------------------------


e-------------------------------------------------------------------
H-------------------------------------------------------------------
G-------------------------------------------------------------------
D-5---5---5-5-5-5---5-5-5---5-5-5-8---8---8-8-8-8---8-8-8---8-8-8---
A-5---5---5-5-5-5---5-5-5---5-5-5-7---7---7-7-7-7---7-7-7---7-7-7---
E-3---3---3-3-3-3---3-3-3---3-3-3-----------------------------------


e-------------------------------------------------------------------
H-------------------------------------------------------------------
G-8---8---8-8-8-8---8-8-8---8-8-8-8---8---8-8-8-8---8-8-8---8-8-8---
D-8---8---8-8-8-8---8-8-8---8-8-8-8---8---8-8-8-8---8-8-8---8-8-8---
A-6---6---6-6-6-6---6-6-6---6-6-6-6---6---6-6-6-6---6-6-6---6-6-6---
E-------------------------------------------------------------------


refr 2 után

e-------------------------------------------------------------------
H-------------------------------------------------------------------
G---------------8---8-x-10--10x-x---------------8---8-x-10--10x-x---
D-8---8---8-8-8-8---8-x-10--10x-x-5---5---5-5-5-8---8-x-10--10x-x---
A-8---8---8-8-8-6---6-x-8---8-x-x-5---5---5-5-5-6---6-x-8---8-x-x---
E-6---6---6-6-6-------------------3---3---3-3-3---------------------


e-------------------------------------------------------------------
H-------------------------------------------------------------------
G---------------8---8-x-10--10x-x---------------8---8-x-10--10x-x---
D-8---8---8-8-8-8---8-x-10--10x-x-5---5---5-5-5-8---8-x-10--10x-x---
A-8---8---8-8-8-6---6-x-8---8-x-x-5---5---5-5-5-6---6-x-8---8-x-x---
E-6---6---6-6-6-------------------3---3---3-3-3---------------------



e-------------------------------------------------------------------
H-------------------------------------------------------------------
G----------------------------------8---8-8-8-8-8-8---10--10--10-----
D-10--1010101010101010101010101010-8---8-8-8-8-8-8-x-10x-10x-10-----
A-10--1010101010101010101010101010-6---6-6-6-6-6-6-x-8-x-8-x-8------
E-8---8-8-8-8-8-8-8-8-8-8-8-8-8-8-----------------------------------
          x x x x x x x x x x x x

innen meg az intro + verse



PIRAMIS CSAK RÖVID IDŐ TAB (MAIN RIFF)



e-------------------------------------------------------------------
H-------------------------------------------------------------------
G-------------------------------------------------------------------
D---2---p1p0-----------------------------------------2-0h1h2--------
A-----------2p1p0--------1'------3p2-3p2-1'-----2------------2------
E-0---------------3'---0------------------------0------------0------
  x                    x         


e-------------------------------------------------------------------
H-------------------------------------------------------------------
G-------------------------------------------------------------------
D---2---p1p0-----------------------------------------2-0h1h2--------
A-----------2p1p0--------1'------3p2-3p2-1'-----2------------2------
E-0---------------3'---0------------------------0------------0------
  x                    x         


e-------------------------------------------------------------------
H-------------------------------------------------------------------
G-------------------------------------------------------------------
D-9---x-x-x-x-x-x-x-x-x-x-9-9-9-9--7/9-x-x-x-x-x-x-x-x-x-x-7-x-7-x--
A-7---x-x-x-x-x-x-x-x-x-x-7-7-7-7--5/7-x-x-x-x-x-x-x-x-x-x-5-x-5-x--
E-------------------------------------------------------------------


e-------------------------------------------------------------------
H-------------------------------------------------------------------
G-------------------------------------------------------------------
D-7/9-x-x-x-x-x-x-x-x-x-x-7-x-7-x---7/9-x-x-x-x-x-x-x-x-9-9-9-\-----
A-5/7-x-x-x-x-x-x-x-x-x-x-5-x-5-x---5/7-x-x-x-x-x-x-x-x-7-7-7-\-----
E-------------------------------------------------------------------


e-------------------------------------------------------------------
H-------------------------------------------------------------------
G-------------------------------------------------------------------
D-2---p1p0------2---p1p0------2---p1p0------------------------------
A---------2p1p0---------2p1p0---------2p1p0-2-----------------------
E-------------------------------------------0-----------------------