A következő címkéjű bejegyzések mutatása: gringo sztár. Összes bejegyzés megjelenítése
A következő címkéjű bejegyzések mutatása: gringo sztár. Összes bejegyzés megjelenítése

20121115

GRINGO SZTÁR PÁLINKA SUNRISE TAB (AKKORDOK)


Refr

e---3---3---1---1---3---3---3---3-----------------------------------
H---4---4---1---1---3---3---4---4-----------------------------------
G---5---5---1---1---3---3---5---5-----------------------------------
D---5---5---3---3---5---5---5---5-----------------------------------
A---3---3---3---3---5---5---3---3-----------------------------------
E-----------1---1---3---3-------------------------------------------


Duma alatt

e----3-------------------------1-----------------3------------------
H----4-------------------------1-----------------3------------------
G----5------- 8x --------------1------ 4x -------3----- 4x ---------
D----5-------------------------3-----------------5------------------
A----3-------------------------3-----------------5------------------
E------------------------------1-----------------3------------------


Bridge

e-------------------------------------------------------------------
H-4---4-x-4-4---4-x-4--1---1-x-1-1---1-x-1-1---1-x-1-3---3---3-x-3-3
G-5---5-x-5-5---5-x-5--1---1-x-1-1---1-x-1-1---1-x-1-3---3---3-x-3-3
D-5---5-x-5-5---5-x-5--3---3-x-3-3---3-x-3-3---3-x-3-3---3---3-x-3-3
A-3---3---3-3---3---3--3---3---3-3---3---3-3---3-x-3----------------
E----------------------1---1---1-1---1---1-1---1-x-1----------------



GRINGO SZTÁR TÉLEN-NYÁRON NYÁR TAB


Az akkordok a következők:
Cm G# Eb B/D
Cm G# Eb G/H
Cm G# Eb B


Intro/verse

e-----3-------3-------4-------4-------3-------3---------------------
H-----4---x---4-------4---x---4-------4---x---4-------3---x---3-----
G-----5---x---5-------5---x---5-------3---x---3-------3---x---3-----
D---------x---------------x---------------x-----------3---x---3-----
A-3-------------------------------6---------------5-----------------
E-----------------4-------------------------------------------------


Refr 1  3 4 5 stb

e-----3-------3-------4-------4-------3-------3---------------------
H-----4---x---4-------4---x---4-------4---x---4-------3---x---3-----
G-----5---x---5-------5---x---5-------3---x---3-------4---x---4-----
D---------x---------------x---------------x-----------5---x---5-----
A-3-------------------------------6---------------2-----------------
E-----------------4-------------------------------------------------


e-----3-------3-------4-------4-------3-------3---------------------
H-----4---x---4-------4---x---4-------4---x---4-------6---x---6-----
G-----5---x---5-------5---x---5-------3---x---3-------7---x---7-----
D---------x---------------x---------------x-----------8---x---8-----
A-3-------------------------------6---------------------------------
E-----------------4-------------------------------6-----------------


Duma rész... és refr 2

e-----3-------3-------4-------4-----------------------6-------6-----
H-----4---x---4-------4---x---4-------8---x---8-------6---x---6-----
G-----5---x---5-------5---x---5-------8---x---8-------7---x---7-----
D-----5---x---5-------6---x---6-------8---x---8-------8---x---8-----
A-------------------------------------6-------6---------------------
E-------------------------------------------------------------------


e-----3-------3-------4-------4-----------------------6-------6-----
H-----4---x---4-------4---x---4-------8---x---8-------6---x---6-----
G-----5---x---5-------5---x---5-------8---x---8-------7---x---7-----
D-----5---x---5-------6---x---6-------8---x---8-------8---x---8-----
A-------------------------------------6-------6---------------------
E-------------------------------------------------------------------


e-----3-------3-------4-------4-------------------------------------
H-----4---x---4-------4---x---4-------8---x---8-------3---x---3-----
G-----5---x---5-------5---x---5-------8---x---8-------4---x---4-----
D-----5---x---5-------6---x---6-------8---x---8-------5---x---5-----
A-------------------------------------6-------6-------2-------2-----
E-------------------------------------------------------------------


e-----3-------3-------4-------4-----------------------6-------6-----
H-----4---x---4-------4---x---4-------8---x---8-------6---x---6-----
G-----5---x---5-------5---x---5-------8---x---8-------7---x---7-----
D-----5---x---5-------6---x---6-------8---x---8-------8---x---8-----
A-------------------------------------6-------6---------------------
E-------------------------------------------------------------------