A következő címkéjű bejegyzések mutatása: honeybeast. Összes bejegyzés megjelenítése
A következő címkéjű bejegyzések mutatása: honeybeast. Összes bejegyzés megjelenítése

20140811

HONEYBEAST A LEGNAGYOBB HŐS TAB



HONEYBEAST A LEGNAGYOBB HŐS TAB


Akkordok

  Bbm    F/A   C#maj7  F#maj7    G#6      G#     C'fsz'  F7    G'sz'
e--1------1-----(4)----(1)--------4-------4--------------1--------------
H--2------1------6------2---------6-------4-------4------1------2-------
G--3------2------5------3---------5-------5-------3------2------3-------
D--3------3------6------3---------6-------6-------4------1------2-------
A--1------0------4------x---------x-------6-------3------3------x-------
E-----------------------2---------4-------4--------------1------3-------

  F#m     C#m    E         G#sus4  G#?
e--2------4------0-----------4------4-----------------------------------
H--2------5------0-----------4------4-----------------------------------
G--2------6------1-----------6------7-----------------------------------
D--4------6------2-----------x------x-----------------------------------
A--4------4------2-----------6------6-----------------------------------
E--2-------------0-----------4------4-----------------------------------



Bbm
A jó híremen nem eshet csorba,

F/A
Beállok én is a tornasorba.

C#maj7
Hiszem, hogy két paralel történet

F#maj7
A végtelenben összeérhet.