A következő címkéjű bejegyzések mutatása: instrumentális. Összes bejegyzés megjelenítése
A következő címkéjű bejegyzések mutatása: instrumentális. Összes bejegyzés megjelenítése

20150512

SZEKERES ADRIENN OLYAN, MINT TE TAB (MÓKOS JÁNOS GUITAR COVER)

Mókos János instrumentális videója Szekeres Adrienn - Olyan, mint Te című dala alapján.


SZEKERES ADRIENN OLYAN, MINT TE INSTRUMENTÁLIS TAB

Part 1

e-----------------------------------------------------------------------
B----------------------10.----------------------------------------------
G-------------9.--10--------12~----------10.--9~------------9-----------
D--------12---------------------------------------12.--11-----12~--\----
A---12------------------------------------------------------------------
E-----------------------------------------------------------------------


e-----------------------------------------------------------------------
B-----------------------10.--11~-------------------------11-----10~-----
G--------------9.--10-----------------------------------------12--------
D---------12------------------------------12.--10---10.-----------------
A---/12-----------------------------------------------------------------
E-----------------------------------------------------------------------


e-----------------------------------------------------------------------
B-----10---10.--10--h11p10----------------------------------------------
G------------------------------12~--------------------------------------
D---10------------------------------------------------------------------
A-----------------------------------------------------------------------
E-----------------------------------------------------------------------