A következő címkéjű bejegyzések mutatása: látod édesanyám. Összes bejegyzés megjelenítése
A következő címkéjű bejegyzések mutatása: látod édesanyám. Összes bejegyzés megjelenítése

20160212

HOLDVIOLA LÁTOD ÉDESANYÁM TAB

Holdviola - Látod Édesanyám egy szál gitár kíséretében.



HOLDVIOLA LÁTOD ÉDESANYÁM TAB


Intro

e-----------------------------------------------------------------------
B---------3-----------0---------3p2-----------0-------------------------
G-------4---4-------4---4-------------4-----4---4-----------------------
D-----4---------0h2-------2---4-----4-----2-------0---------------------
A---2---------4-------------0-----------0-------------------------------
E-----------------------------------------------------------------------


e-----------------------------------------------------------------------
B-----------------------------------------------------------------------
G---2-----0-----------0-----4---------4-3-------------------------------
D-------4---4---2---4---4-0-----4---4-----------------------------------
A-----2-------2---2-----------------------------------------------------
E---3-----------0-----------2-----2-------------------------------------


Látod Édesanyám ...

e-----------------------------------------------------------------------
B---------3-----------0---------3p2-----------0-------------------------
G-------4---4-------4---4-------------4-----4---4-----------------------
D-----4---------0h2-------2---4-----4-----2-------0---------------------
A---2---------4-------------0-----------0-------------------------------
E-----------------------------------------------------------------------