A következő címkéjű bejegyzések mutatása: lerch. Összes bejegyzés megjelenítése
A következő címkéjű bejegyzések mutatása: lerch. Összes bejegyzés megjelenítése

20150721

ÉN MEG AZ ÉNEK VÁRJ MÍG FELKEL MAJD A NAP TAB (LERCH ISTVÁN)

Várj míg felkel majd a nap 30 másodpercben, Bérczesi Róbert előadásában.



ÉN MEG AZ ÉNEK VÁRJ MÍG FELKEL MAJD A NAP TAB


    Em              D       C       G       G       A
e---3---------------2-------0-------------------------------------------
B-----------0-------------------------------0-------2-------------------
G-------0-------0-------2-------0---0-----------0-------2---------------
D-------------------0-------------------0-------------------------------
A---------------------------3---------------2-------0-------------------
E---0-------------------------------3-----------------------------------

    D
e---------------------------3p2p0---2-----------------------------------
B---3---------------3-------------------3-------------------------------
G-------2-------2-------2-------------------2---------------------------
D---0-------0-----------------------------------0-----------------------
A-----------------------------------------------------------------------
E-----------------------------------------------------------------------

    Em                      D       C       G       G       A
e---3---------------3-------2-------0-----------------------------------
B-----------0---------------------------------------0-------2-----------
G-------0-------0-------0-------2-------0---0-----------0-------2-------
D---------------------------0-------------------0-----------------------
A-----------------------------------3---------------2-------0-----------
E---0---------------------------------------3---------------------------