A következő címkéjű bejegyzések mutatása: no love in town. Összes bejegyzés megjelenítése
A következő címkéjű bejegyzések mutatása: no love in town. Összes bejegyzés megjelenítése

20130713

PANNONIA ALLSTARS SKA ORCHESTRA NO LOVE IN TOWN TAB (SZÓLÓ)



PASO NO LOVE IN TOWN TAB


Szóló ~ 1:05

e-/5.---x-5---5-5-5----------------------------------------------5------
H-/5.---x-5---5-5-5-8p7p5-7-5-----------8-7.---5.---4.---5---\---4------
G---------------------------------8p7p5-8-7.---5.---4.---5---\----------
D-----------------------------------------------------------------------
A-----------------------------------------------------------------------
E-----------------------------------------------------------------------


e-/10.---x-10---10-10-10-------------------------/5.---x-5---5-5-5------
H-/10.---x-10---10-10-10-13-13-13----12-12-10.---/5.---x-5---5-5-5------
G------------------------13-13-13-12-12-12-10.--------------------------
D-----------------------------------------------------------------------
A-----------------------------------------------------------------------
E-----------------------------------------------------------------------


e-8p7p5---------------------12.---------12---------10-------10----------
H-------8p7p5-------7---/---15(17).-----15(17)-----13(15)---13(15).-----
G-------------8p7p5-----------------------------------------------------
D-----------------------------------------------------------------------
A-----------------------------------------------------------------------
E-----------------------------------------------------------------------


e-10-------10-10----------5-----5-5-5-------5------------12-------------
H-13(15)------13(15)------8(10)-----8(10)-----(10)---/---15(17)---------
G-----------------------------------------------------------------------
D-----------------------------------------------------------------------
A-----------------------------------------------------------------------
E-----------------------------------------------------------------------


Akkordmenet

  Am                             Dm               Am

e-5------------------------------5----------------5---------------------
H-5------------------------------6----------------5---------------------
G-5------------------------------7----------------5---------------------
D-7------------------------------7----------------7---------------------
A-7------------------------------5----------------7---------------------
E-5-----------------------------------------------5---------------------


  E7             Dm              Am

e----------------5---------------5--------------------------------------
H-5--------------6---------------5--------------------------------------
G-7--------------7---------------5--------------------------------------
D-6--------------7---------------7--------------------------------------
A-7--------------5---------------7--------------------------------------
E--------------------------------5--------------------------------------