A következő címkéjű bejegyzések mutatása: pannonia allstars ska orchestra. Összes bejegyzés megjelenítése
A következő címkéjű bejegyzések mutatása: pannonia allstars ska orchestra. Összes bejegyzés megjelenítése

20130713

PANNONIA ALLSTARS SKA ORCHESTRA NO LOVE IN TOWN TAB (SZÓLÓ)



PASO NO LOVE IN TOWN TAB


Szóló ~ 1:05

e-/5.---x-5---5-5-5----------------------------------------------5------
H-/5.---x-5---5-5-5-8p7p5-7-5-----------8-7.---5.---4.---5---\---4------
G---------------------------------8p7p5-8-7.---5.---4.---5---\----------
D-----------------------------------------------------------------------
A-----------------------------------------------------------------------
E-----------------------------------------------------------------------


e-/10.---x-10---10-10-10-------------------------/5.---x-5---5-5-5------
H-/10.---x-10---10-10-10-13-13-13----12-12-10.---/5.---x-5---5-5-5------
G------------------------13-13-13-12-12-12-10.--------------------------
D-----------------------------------------------------------------------
A-----------------------------------------------------------------------
E-----------------------------------------------------------------------


e-8p7p5---------------------12.---------12---------10-------10----------
H-------8p7p5-------7---/---15(17).-----15(17)-----13(15)---13(15).-----
G-------------8p7p5-----------------------------------------------------
D-----------------------------------------------------------------------
A-----------------------------------------------------------------------
E-----------------------------------------------------------------------


e-10-------10-10----------5-----5-5-5-------5------------12-------------
H-13(15)------13(15)------8(10)-----8(10)-----(10)---/---15(17)---------
G-----------------------------------------------------------------------
D-----------------------------------------------------------------------
A-----------------------------------------------------------------------
E-----------------------------------------------------------------------


Akkordmenet

  Am                             Dm               Am

e-5------------------------------5----------------5---------------------
H-5------------------------------6----------------5---------------------
G-5------------------------------7----------------5---------------------
D-7------------------------------7----------------7---------------------
A-7------------------------------5----------------7---------------------
E-5-----------------------------------------------5---------------------


  E7             Dm              Am

e----------------5---------------5--------------------------------------
H-5--------------6---------------5--------------------------------------
G-7--------------7---------------5--------------------------------------
D-6--------------7---------------7--------------------------------------
A-7--------------5---------------7--------------------------------------
E--------------------------------5--------------------------------------



20130610

PANNONIA ALLSTARS SKA ORCHESTRA BUDAPEST TAB



PASO BUDAPEST TAB

Intro / solo

e-----------------------------------------------------------------------
H--9-/-11-11~-----11~-----11~--------13p11------------------------------
G-10-/-12------12------12------------------12---------------------------
D---------------------------------------------13-------13/15\12~--------
A-----------------------------------------------------------------------
E-----------------------------------------------------------------------


e-----------------------------------------------------------------------
H--9-/-11-11~-----11~-----11~--------13p11------------------------------
G-10-/-12------12------12------------------12---------------------------
D---------------------------------------------13-------12--/-15~--------
A-----------------------------------------------------------------------
E-----------------------------------------------------------------------


Verse / solo akkordmenet

  Cm                            Eb               Gm

e-8----------------------------------------------10---------------------
H-8-----------------------------8----------------11---------------------
G-8-----------------------------8----------------12---------------------
D-10----------------------------8----------------12---------------------
A-10----------------------------6----------------10---------------------
E-8---------------------------------------------------------------------



... Budapest ....        de csodááás

  Fm                            Cm

e-8-----------------------------8---------------------------------------
H-9-----------------------------8---------------------------------------
G-10----------------------------8---------------------------------------
D-10----------------------------10--------------------------------------
A-8-----------------------------10--------------------------------------
E-------------------------------8---------------------------------------


  Fm                            Gm                          G7    

e-8-----------------------------10--------------------------------------
H-9-----------------------------11---------------------------8----------
G-10----------------------------12--------------------------10----------
D-10----------------------------12---------------------------9----------
A-8-----------------------------10--------------------------10----------
E-----------------------------------------------------------------------


Vége

  Cm                                                   G7

e-8---------------------------------------------------------------------
H-8-----------------------------------------------------8.----8.--------
G-8----------------------------------------------------10.---10.--------
D-10----------------------------------------------------9.----9.--------
A-10---------------------------------------------------10.---10.--------
E-8---------------------------------------------------------------------