A következő címkéjű bejegyzések mutatása: riff. Összes bejegyzés megjelenítése
A következő címkéjű bejegyzések mutatása: riff. Összes bejegyzés megjelenítése

20130517

DEÁK BILL GYULA KÉNE EGY ÜVEG BOR TAB (MAIN RIFF)


Main riff

e-----------------------------------------------------------------------
H-5h6-----6.--x-x-5---5-5-----------------------------------------------
G-5-------5.--x-x-5---5-5-5h7p5---5-------------------------------------
D-5h7-----7.--x-x-5---5-5-5-----7---------------------------------------
A-5-------5.--x-x-5h7-7-7-----------------------------------------------
E-----------------5-----------------------------------------------------


e-----------------------------------------------------------------------
H-3-------3.--x-x-5---5-5-----------------------------------------------
G-3-------3.--x-x-5---5-5-5h7p5---5-------------------------------------
D-3-------3.--x-x-5---5-5-5-----7---------------------------------------
A-3h5-----5.--x-x-5h7-7-7-----------------------------------------------
E-3-------3.------5-----------------------------------------------------