A következő címkéjű bejegyzések mutatása: senki se menekül. Összes bejegyzés megjelenítése
A következő címkéjű bejegyzések mutatása: senki se menekül. Összes bejegyzés megjelenítése

20141101

QUIMBY SENKI SE MENEKÜL TAB (SZÓLÓ)

Standard hangolás, Capo a 2. bundon és egy brilliáns Kiss Tibor szóló 3:04 körül.



QUIMBY SENKI SE MENEKÜL SZÓLÓ TAB


e---9-7.----------------------------------------------------------------
B--7------7~------6h7-6--------------------7.--7.--7\6/7\6--/7.---------
G-7---------------------9-7-6--------------7.--7.--7\6/7\6--/7.---------
D-----------------------------9.----------------------------------------
A-----------------------------------------------------------------------
E-----------------------------------------------------------------------


e-2---3-2---------2-------------------2---------------------------------
B-----------5---------------2-------------------------------------------
G---------------------3-----------3-------------------------------------
D-----------------------------------------------------------------------
A-----------------------------------------------------------------------
E-----------------------------------------------------------------------


e-------2---------------2----------------2---------5-2------------------
B-----2-----2---------------2-------------------------------------------
G-2h4---------4---2h4---------2---/7-----------7---------6-----7--------
D-----------------------------------------------------------------------
A-----------------------------------------------------------------------
E-----------------------------------------------------------------------