A következő címkéjű bejegyzések mutatása: tab. Összes bejegyzés megjelenítése
A következő címkéjű bejegyzések mutatása: tab. Összes bejegyzés megjelenítése

20130331

BYEALEX KEDVESEM TAB

Ez a dal képviselte Magyarországot a 2013-as Eurovision Song Contest eseményen.
A tab és a videó a stúdió verzió alapján készült.


BYEALEX KEDVESEM TAB

Intro

e-----------------------------------------------------------------------
B-----------------------------------------------------------------------
G-----------------------------------------------------------------------
D----5-----5-----2-----2----------   4x   ------------------------------
A-3-----3-----3-----3---------------------------------------------------
E-----------------------------------------------------------------------

Verse

e-----------------------------------------------------------------------
B-----------------------------------------------------------------------
G-----------------------------------------------------------------------
D----5-----5-----2-----2-----5-----5-----2-----2------------------------
A-3-----3-----3-----3-----3-----3-----3-----3---------------------------
E-----------------------------------------------------------------------


e-----------------------------------------------------------------------
B-----------------------------------------------------------------------
G-----------------------------------------------------------------------
D----5-----5-----2-----2-----5-----5-----2------------------------------
A-3-----3-----3-----3-----3-----3-----3-----3--2------------------------
E-----------------------------------------------------------------------


e-----------------------------------------------------------------------
B-----------------------------------------------------------------------
G-----------------------------------------------------------------------
D----5-----5-----2-----2-----5-----5-----2------------------------------
A-0-----0-----0-----0-----0-----0-----0-----0--2------------------------
E-----------------------------------------------------------------------


e-----------------------------------------------------------------------
B-----------------------------------------------------------------------
G-----------------------------------------------------------------------
D----5-----5-----2-----2-----5-----5-----2-----2------------------------
A-3-----3-----3-----3-----3-----3-----3-----3---------------------------
E-----------------------------------------------------------------------

Refr

e-----------------------------------------------------------------------
B-----------------------------------------------------------------------
G-----------------------------------------------------------------------
D----5-----5-----2-----2-----5-----5-----2------------------------------
A-3-----3-----3-----3-----3-----3-----3-----3--2------------------------
E-----------------------------------------------------------------------


e-----------------------------------------------------------------------
B-----------------------------------------------------------------------
G----2-----2-----------------2-----2------------------------------------
D----------------2-----2-----------------2------------------------------
A-0-----0-----0-----0-----0-----0-----0-----0---------------------------
E----------------------------------------------3------------------------


e-----------------------------------------------------------------------
B-----------------------------------------------------------------------
G----2-----2-----------------2-----2-----0------------------------------
D----------------2-----2------------------------------------------------
A-------------------------------------------0--2------------------------
E-1-----1-----1-----1-----1-----1-----1---------------------------------


e-----------------------------------------------------------------------
B-----------------------------------------------------------------------
G-----------------------------------------------------------------------
D----5-----5-----2-----2-----5-----5-----2-----2------------------------
A-3-----3-----3-----3-----3-----3-----3-----3---------------------------
E-----------------------------------------------------------------------



20130115

TANKCSAPDA MAGZAT A MÉHBEN TAB (SZÓLÓ)


e-------------------------------------------------------------------
H-------------------------------------------------------------------
G-------5'---------5'--------------------5'---------5'--------------
D-5h7--------7p5-7------7p5-5------7p5-7------7p5-7------7p5-5------
A-------------------------------------------------------------------
E-------------------------------------------------------------------


e-------------------------------------------------------------------
H----------13'------------13'---------13----------------------------
G-14p12-14-------14p12-14-------14p12-------------------------------
D-------------------------------------------------------------------
A-------------------------------------------------------------------
E-------------------------------------------------------------------


e-------------------------------------------------------------------
H-15(17)------(17)(15)-13-15(17).---13------------------------------
G-------------------------------------------------------------------
D-------------------------------------------------------------------
A-------------------------------------------------------------------
E-------------------------------------------------------------------


e-------------------------------------------------------------------
H-15(17)------15(17).--15(17).--15(17)-(17)(15)p13------------------
G-------------------------------------------------------------------
D-------------------------------------------------------------------
A-------------------------------------------------------------------
E-------------------------------------------------------------------


e-------------------------------------------------------------------
H-------------------------------------------------------------------
G-5h7(9)------(9)(7)p5-----5'---------------------------------------
D----------------------7--------------------------------------------
A-------------------------------------------------------------------
E-------------------------------------------------------------------


e-8-------8-------8-------8-------8-------8-------------------------
H---6-6-6---6-6-6---6-6-6---6-6-6---6-6-6---6-6-6-------------------
G-------------------------------------------------5---7---5---7(9)--
D-------------------------------------------------------------------
A-------------------------------------------------------------------
E-------------------------------------------------------------------



20121223

KALAPÁCS ANGYAL TAB (INTRO)


e----------------0------------------2-------------------------------
H-------------3-----3------------3-----3-----3----------------------
G----------0-----------0------2-----------2-----2-------------------
D-------2------------------0----------------------------------------
A----2--------------------------------------------------------------
E-0-----------------------------------------------------------------


e-------------0------------------------0----------------------------
H----------3-----3-----3------------3-----3-----3-------------------
G-------0-----------0------------0-----------0----------------------
D----2------------------------2-------------------------------------
A-3------------------------3----------------------------------------
E-------------------------------------------------------------------


e----------------0------------------2-------------------------------
H-------------3-----3------------3-----3-----3----------------------
G----------0-----------0------2-----------2-----2-------------------
D-------2------------------0----------------------------------------
A----2--------------------------------------------------------------
E-0-----------------------------------------------------------------


e-------------0----------0------------------------------------------
H----------3-----3-------3------------------------------------------
G-------0-----------0----0------------------------------------------
D----2-------------------2------------------------------------------
A-3----------------------3------------------------------------------
E-------------------------------------------------------------------


20121123

BON BON VÁLASSZ ENGEM TAB (SZÓLÓ)


e-------------------------------------------------------------------
H-------------------------------------------------------------------
G------8-9-11/13.---8.--9--------9-11p9\8---------------------------
D-9/11--------------9.--11----------------11-9----11----------------
A----------------------------------------------11-------------------
E-------------------------------------------------------------------


e-------------------9--9----9.---7.---------------------------------
H----------------12-10-10.--10.--9.--7h9p7--------------------------
G------8-9-11/13---------------------------9------------------------
D-9/11--------------------------------------------------------------
A-------------------------------------------------------------------
E-------------------------------------------------------------------


e-12---------------12------11-\--------------------------9----------
H-12h14---p12------12h14.--12-\---------------------12.--10---------
G-------------14.-----------------------8-9-11/13-------------------
D----------------------------------9/11-----------------------------
A-------------------------------------------------------------------
E-------------------------------------------------------------------


e-14h15p14p12-12.-----12--------------------------------------------
H------------------14.-----14p12------------------------------------
G--------------------------------13\11-9----------------------------
D-------------------------------------------------------------------
A-------------------------------------------------------------------
E-------------------------------------------------------------------


e-------------12-9h12p9---------------------------------------------
H-9-10.--10-------------10------------------------------------------
G-9-11.--11----------------9\6--------------------------------------
D------------------------------7------------------------------------
A-------------------------------------------------------------------
E-------------------------------------------------------------------


e-12---------------12-----------------------------------------------
H-12h14---p12------12h14.--12-----12p10p9---------------------------
G-------------14.------------------------11p9p8---------------------
D----------------------------------------------11p9-----------------
A-------------------------------------------------------------------
E-------------------------------------------------------------------



20121122

HOBO BLUES BAND KŐBÁNYA BLUES TAB


Intro

e-------------------------------------------------------------------
H-------------------------------------------------------------------
G-----------------------------------------0-------------------------
D-2.--2.--2------------2.--2.--2------0h2---------------------------
A-0.--0.--0------------0.--0.--0------------------------------------
E---------------0-3'------------------------------------------------


e-------------------------------------------------------------------
H-------------------------------------------------------------------
G-------------------------------------------------------------------
D-2.--2.--2--------------/7---5------5------------------------------
A-0.--0.--0-----------------------5h7--5h7--5-3---------------------
E---------------0-3'------------------------------------------------


Verse

e-------------------------------------------------------------------
H-------------------------------------------------------------------
G-----------------------------------------0-------------------------
D-2.--2.--2------------2.--2.--2------0h2--0------------------------
A-0.--0.--0------------0.--0.--0------------------------------------
E---------------0-3'------------------------------------------------


e-------------------------------------------------------------------
H-------------------------------------------------------------------
G-----------------------------------------0-------------------------
D-2.--2.--2------------2.--2.--2------0h2---------------------------
A-0.--0.--0------------0.--0.--0------------------------------------
E---------------0-3'------------------------------------------------


e-------------------------------------------------------------------
H-------------------------------------------------------------------
G-----------------------------------------0-------------------------
D-2.--2.--2------------2.--2.--2------0h2--0------------------------
A-0.--0.--0------------0.--0.--0------------------------------------
E---------------0-3'------------------------------------------------


e-------------------------------------------------------------------
H-------------------------------------------------------------------
G-------------------------------------------------------------------
D-2.--2.--2--------------/7---5------5------------------------------
A-0.--0.--0-----------------------5h7--5h7--5-3---------------------
E---------------0-3'------------------------------------------------


Refr

e-------------------------------------------------------------------
H-------------------------------------------------------------------
G-------------------------------------------------------------------
D-5.--5.--7-------3.--3.--2--------------------   3x   -------------
A-3.--3.--5-------1.--1.--0-----0-2---------------------------------
E-------------------------------------------------------------------


e-------------------------------------------------------------------
H------------------------------(8)----------------------------------
G------------------------------(7)----------------------------------
D-5.--5.--7-------3.--3.-------(6)----------------------------------
A-3.--3.--5-------1.--1.--2----(7)----------------------------------
E-------------------------0-----------------------------------------


Szóló

e-------------------------------------------------------------------
H-7(8).---7.---5~---------------------------------------------------
G-7(8).---7.---5~------------5h6-------------5~~--------------------
D--------------------------7-----7-5-7~--7~-------------------------
A-------------------------------------------------------------------
E-------------------------------------------------------------------


e-------------------------------------------------------------------
H-7(8).---7.---5~---------------------------------------------------
G-7(8).---7.---5~------------5h6------------------------------------
D--------------------------7-----7-5-7~-----7~--5------5------5-----
A---------------------------------------------------5h7--5-5h7--5---
E-------------------------------------------------------------------


e-------------------------------------------------------------------
H-7(8).---7.---5~---------------------------------------------------
G-7(8).---7.---5~------------5h6-------------5~~-/------------------
D--------------------------7-----7-5-7~--7~-------------------------
A-------------------------------------------------------------------
E-------------------------------------------------------------------


e-14(15).---14.-----------------------------------------------------
H-15(16).---15.---13~------13h14------------------------------------
G------------------------14-----14-12-14~--12~-------12-------------
D-----------------------------------------------12h14--12h14-12-10\-
A-------------------------------------------------------------------
E-------------------------------------------------------------------



20121121

DEÁK BILL ROSSZ VÉR TAB (SZÓLÓ)


Deák Bill Gyula - Rossz Vér gitár szóló tab az alábbi verzió alapján (3:03 - 4:06)


DEÁK BILL ROSSZ VÉR SZÓLÓ TAB

GP5 + GP6 + PDF >>

Szóló

e-----------------------------------------------------------------------
B-----------------------------------------------------------------------
G--------------------------------14(16)-14~~~---------------------------
D---------12-12-14~~~---------------------------------------------------
A------/14--------------------------------------------------------------
E-----------------------------------------------------------------------


e-----------------------------------------------------------------------
B------------------12-12-15~-----------15-15~---15p12-------------------
G------12-14(16)--------------------------------------14(16)-14~~~------
D---14------------------------------------------------------------------
A-----------------------------------------------------------------------
E-----------------------------------------------------------------------


e------12-12h14---------------------------------------------------------
B---12----------15~-----------12-15-15p12----------15-------------------
G----------------------------------------14(16)-12---14(16)-14~---------
D-----------------------------------------------------------------------
A-----------------------------------------------------------------------
E-----------------------------------------------------------------------


e-----------------------------------------------------------------------
B-----------------------------------------------------------------------
G---12h14p12-\11h12p11-\9h11p9-\7h9p7~~~--------------------------------
D-----------------------------------------------------------------------
A-----------------------------------------------------------------------
E-----------------------------------------------------------------------


e-----------------------------------------------------------------------
B-----------------------------------------------------------------------
G--------------------------------------------------12h14~~~-------------
D------7-9-9h10-9-7------------------------------12---------------------
A---10--------------10~------------------10-12/14-----------------------
E-----------------------------------10/12-------------------------------


e----12--------12-------------------------------------------------------
B--12--12-15-15---------------------------12-12-15-15(17)-15------------
G----------------(16)(14)-12h14-12-14(16)-------------------(16)(14)----
D-----------------------------------------------------------------------
A-----------------------------------------------------------------------
E-----------------------------------------------------------------------

Itt bevadul picit...
e------------------------------------------------------------12-15p12---
B---------------12-15-15(17)-15-12----------------------12-15--------15-
G-----12-14(16)-------------------(16)(14)p12--14--12h14----------------
D--14----------------------------------------14--14---------------------
A-----------------------------------------------------------------------
E-----------------------------------------------------------------------


e----12-----------------------------------------------------------------
B--12--15p12-------12-15------------------------------------------------
G-----------14(16)------(16)(14)p12-----12------------------------------
D----------------------------------14p12--14p12-----12------------------
A----------------------------------------------14-12--14p12-------------
E----------------------------------------------------------15-12\10-----


e-----------------------------------------------------------------------
B-----------------------------------------------------------------------
G-----------------12-------14p12-14~~~----------------------------------
D-------------12--------------------------------------------------------
A-----10-/14------------------------------------------------------------
E---12------------------------------------------------------------------


....aztán újra nyugi

e--15-17-17h19~--17h19~~~--------19p17p15-17~-----17h19-17~~~-----------
B-----------------------------------------------------------------------
G-----------------------------------------------------------------------
D-----------------------------------------------------------------------
A-----------------------------------------------------------------------
E-----------------------------------------------------------------------


e----12h14-14---------------------12-12---------------------------------
B--12--------15~--------12-15(17)-------15------------------------------
G-----------------------------------------14(16)---(14)p12--12h14~------
D---------------------------------------------------------14------------
A-----------------------------------------------------------------------
E-----------------------------------------------------------------------


e-----------------------------------------------------------------------
B-----------------------------------------------------------------------
G---12-14(16).----------------------------------------------------------
D-----------------------------------------------------------------------
A-----------------------------------------------------------------------
E-----------------------------------------------------------------------





20121119

MAGNA CUM LAUDE VIDÉKI SANZON TAB

A Vidéki Sanzon akkordok a következők:


MAGNA CUM LAUDE VIDÉKI SANZON TAB

Intro

e-3-------3-------0---------------3-------0-------1-----------------
H-3-------5-------1---------------3-------2-------3-----------------
G-3-------3-------2---------------3-------0-------2-----------------
D-3-------5-------3---------------2-------2-------0-----------------
A-5-------3-------3-----------------------0-------------------------
E-3-----------------------------------------------------------------


A szöveg alatt

e-3-3---3-3-3---0-0-0---0-0-0-0-0--3-3---0-0-0---1-1-1---1-1-1-1-1--
H-3-3-x-5-5-5-x-1-1-1-x-1-1-1-1-1--3-3-x-2-2-2-x-3-3-3-x-3-3-3-3-3--
G-3-3-x-3-3-3-x-2-2-2-x-2-2-2-2-2--3-3-x-0-0-0-x-2-2-2-x-2-2-2-2-2--
D-3-3-x-5-5-5-x-3-3-3-x-3-3-3-3-3--2-2-x-2-2-2-x-0-0-0-x-0-0-0-0-0--
A-5-5---3-3-3---3-3-3---3-3-3-3-3--------0-0-0----------------------
E-3-3---------------------------------------------------------------



A pengetés: le-föl le(x)  föl-le-föl le(x)  föl-le-föl le(x)  föl-le-föl-le-föl
                     le-föl le(x)  föl-le-föl le(x)  föl-le-föl le(x)  föl-le-föl-le-föl


20121115

GANXSTA ZOLEE ÉS A KARTEL VATO LOCO TAB (INTRO)



e-------------------------------------------------------------------
H-------------------------------------------------------------------
G-------------------2.----------------------------------------------
D-2-2-2-2.--4.--5.------5-4---2---0-0-0-0.--2.--4.--5.--4-2---0-----
A-------------------------------------------------------------------
E-------------------------------------------------------------------


e-------------------------------------------0-0-0-0.----------------
H-------------------------------------------0-0-0-0.----------------
G-------------------------------------------2-2-2-2.----------------
D-----------0.--2.--4.--2-0-0---------------1-1-1-1.----1h2.--4.----
A-3-3-3-3.--------------------3---2---------------------------------
E-------------------------------------------------------------------



GRINGO SZTÁR PÁLINKA SUNRISE TAB (AKKORDOK)


Refr

e---3---3---1---1---3---3---3---3-----------------------------------
H---4---4---1---1---3---3---4---4-----------------------------------
G---5---5---1---1---3---3---5---5-----------------------------------
D---5---5---3---3---5---5---5---5-----------------------------------
A---3---3---3---3---5---5---3---3-----------------------------------
E-----------1---1---3---3-------------------------------------------


Duma alatt

e----3-------------------------1-----------------3------------------
H----4-------------------------1-----------------3------------------
G----5------- 8x --------------1------ 4x -------3----- 4x ---------
D----5-------------------------3-----------------5------------------
A----3-------------------------3-----------------5------------------
E------------------------------1-----------------3------------------


Bridge

e-------------------------------------------------------------------
H-4---4-x-4-4---4-x-4--1---1-x-1-1---1-x-1-1---1-x-1-3---3---3-x-3-3
G-5---5-x-5-5---5-x-5--1---1-x-1-1---1-x-1-1---1-x-1-3---3---3-x-3-3
D-5---5-x-5-5---5-x-5--3---3-x-3-3---3-x-3-3---3-x-3-3---3---3-x-3-3
A-3---3---3-3---3---3--3---3---3-3---3---3-3---3-x-3----------------
E----------------------1---1---1-1---1---1-1---1-x-1----------------



GRINGO SZTÁR TÉLEN-NYÁRON NYÁR TAB


Az akkordok a következők:
Cm G# Eb B/D
Cm G# Eb G/H
Cm G# Eb B


Intro/verse

e-----3-------3-------4-------4-------3-------3---------------------
H-----4---x---4-------4---x---4-------4---x---4-------3---x---3-----
G-----5---x---5-------5---x---5-------3---x---3-------3---x---3-----
D---------x---------------x---------------x-----------3---x---3-----
A-3-------------------------------6---------------5-----------------
E-----------------4-------------------------------------------------


Refr 1  3 4 5 stb

e-----3-------3-------4-------4-------3-------3---------------------
H-----4---x---4-------4---x---4-------4---x---4-------3---x---3-----
G-----5---x---5-------5---x---5-------3---x---3-------4---x---4-----
D---------x---------------x---------------x-----------5---x---5-----
A-3-------------------------------6---------------2-----------------
E-----------------4-------------------------------------------------


e-----3-------3-------4-------4-------3-------3---------------------
H-----4---x---4-------4---x---4-------4---x---4-------6---x---6-----
G-----5---x---5-------5---x---5-------3---x---3-------7---x---7-----
D---------x---------------x---------------x-----------8---x---8-----
A-3-------------------------------6---------------------------------
E-----------------4-------------------------------6-----------------


Duma rész... és refr 2

e-----3-------3-------4-------4-----------------------6-------6-----
H-----4---x---4-------4---x---4-------8---x---8-------6---x---6-----
G-----5---x---5-------5---x---5-------8---x---8-------7---x---7-----
D-----5---x---5-------6---x---6-------8---x---8-------8---x---8-----
A-------------------------------------6-------6---------------------
E-------------------------------------------------------------------


e-----3-------3-------4-------4-----------------------6-------6-----
H-----4---x---4-------4---x---4-------8---x---8-------6---x---6-----
G-----5---x---5-------5---x---5-------8---x---8-------7---x---7-----
D-----5---x---5-------6---x---6-------8---x---8-------8---x---8-----
A-------------------------------------6-------6---------------------
E-------------------------------------------------------------------


e-----3-------3-------4-------4-------------------------------------
H-----4---x---4-------4---x---4-------8---x---8-------3---x---3-----
G-----5---x---5-------5---x---5-------8---x---8-------4---x---4-----
D-----5---x---5-------6---x---6-------8---x---8-------5---x---5-----
A-------------------------------------6-------6-------2-------2-----
E-------------------------------------------------------------------


e-----3-------3-------4-------4-----------------------6-------6-----
H-----4---x---4-------4---x---4-------8---x---8-------6---x---6-----
G-----5---x---5-------5---x---5-------8---x---8-------7---x---7-----
D-----5---x---5-------6---x---6-------8---x---8-------8---x---8-----
A-------------------------------------6-------6---------------------
E-------------------------------------------------------------------



20121113

GANXSTA ZOLEE VALÓ VILÁG TAB


(Fender Stratocaster, neck pick-up)

  
e--------5----------------------------1-----------------------------
H--------5------5h6p5h6p5-x-----------1-----------------------------
G-5------5------5---------x--2--------2------------5----------------
D-7------7------5---------x--3--------3-------/7-------5---\--------
A-7--------------------------3--------------------------------------
E-5--------------------------1--------------------------------------



ZÖLD A BÍBOR ÉS A FEKETE TAB


Intro

e-----2-------------2-------------3-------------3-------------------
B-------2-------------2-------------3-------------3-----------------
G-------------------------------------------------------------------
D---4-------------4-----------------------------------------  2x  --
A-2-------------2---------------2-------------2---------------------
E-----------------------------3-------------3-----------------------


Verse

e-----2-------------2-----------3---------0-------2-----------------
B-------2-------------2-----------3---------2-------2---------------
G-------------------------------------------------------------------
D---4-------------4---------------------2-------4-----------  4x  --
A-2-------------2---------------------0-------2---------------------
E-----------------------------3-------------------------------------


Bridge

e-------------------------------------------------------------------
B-------------------------------------------------------------------
G-------------------------------------------------------------------
D-----------7.----------------------------------------------  4x  --
A-9-7-9.----5.--4-5.--5-7-------------------------------------------
E-7-5-7.--------2-3.--3-5-------------------------------------------


Refr

e-------------------------------------------------------------------
B-------------------------------------------------------------------
G-------------------------------------------------------------------
D-7-----------------------------------------------7-----------------
A-5-------5-------9-----7---------9-7-9.----5.--5-5-----7-----------
E---------3-------7-----5---------7-5-7.----3.--3-------5-----------


e-------------------------------------------------------------------
B-------------------------------------------------------------------
G-------------------------------------------------------------------
D-7-----------------------------------------------------------------
A-5-------5-------9-------7-------5-5-5-5-5-5-5-5-7-7-7-7-7-7-7-7---
E---------3-------7-------5-------3-3-3-3-3-3-3-3-5-5-5-5-5-5-5-5---


Solo 1

e-------------------------------------------------------------------
B---7~~~~--\--------------------------------------------------------
G------------------9(11)(9)p7---9---(11).---------------------------
D----------------------------9--------------------------------------
A-------------------------------------------------------------------
E-------------------------------------------------------------------


e---------10-9------------------------------------------------------
B------12--------10---12~~~---\-------------------------------------
G---11--------------------------------------------------------------
D-------------------------------------------------------------------
A-------------------------------------------------------------------
E-------------------------------------------------------------------


e-------------------------------------------------------------------
B---10---------------------------7.---------------------------------
G---9---(11).-----7'-------------7.---------------------------------
D----------------------9---9p7-------9~-----------------------------
A-----------------------------9-------------------------------------
E-------------------------------------------------------------------


e-------------------------------------------------------------------
B----------------------7-----------7.-------------------------------
G---9(11)---9~---7h9p7-7--9-9p7--------9~---------------------------
D---------------------9---------9-----------------------------------
A-------------------------------------------------------------------
E-------------------------------------------------------------------


e-------------------------------------------------------------------
B-------------------------------------------------------------------
G---7---(9).--------------------------------------------------------
D-------------------------------------------------------------------
A-------------------------------------------------------------------
E-------------------------------------------------------------------


SZÓLÓ 1 + SZÓLÓ 2 GP6 + PDF >>


20121112

OSSIAN TÖBBET ÉR MINDENNÉL TAB (INTRO)



(Half step down tuning)

 
eb-1----------3---1---0-------1----------3---1---0------------------
Hb-3---------3------------3.--3---------3------------3.-------------
Gb-2--------2-----------------2--------2----------------------------
Db-0--------------------------0-------------------------------------
Ab------------------------------------------------------------------
Eb------------------------------------------------------------------


eb-0----------------------------------0-------------------0---------
Hb-1----------3---1---0-----------1-----------0---3-----------------
Gb-2---------2------------0---2-----------0-----------0-------------
Db-2--------2-------------------------------------------------------
Ab-0----------------------------------------------------------------
Eb------------------------------------------------------------------


eb-1----------3---1---0-------1----------3---1---0------------------
Hb-3---------3------------3.--3---------3------------3.-------------
Gb-2--------2-----------------2--------2----------------------------
Db-0--------------------------0-------------------------------------
Ab------------------------------------------------------------------
Eb------------------------------------------------------------------


eb-0--------------------------3-------------------------------------
Hb-1----------3---1---0-------0-------------------------------------
Gb-2---------2------------2---0-------------------------------------
Db-2--------2-----------------0-------------------------------------
Ab-0--------------------------2-------------------------------------
Eb----------------------------3-------------------------------------



GITANO SEMMI NEM ELÉG TAB



Refr/intro

e-4-------4-------6-------4-------4-------4-------6-------4---------
H-5-------4-------8-------4-------5-------4-------8-------4---------
G-6-------4-------6-------4-------6-------4-------6-------4---------
D-6-------6-------8-------6-------6-------6-------8-------6---------
A-4-------6-------6-------6-------4-------6-------6-------6---------
E---------4---------------4---------------4---------------4---------


Verse

e-4---------------6---------------4-------6-------4-----------------
H-4---------------6---------------5-------8-------4-----------------
G-4---------------7---------------6-------6-------4-----------------
D-6---------------6---------------6-------8-------6-----------------
A-6---------------8---------------4-------6-------6-----------------
E-4---------------6-------------------------------4-----------------


e-4---------------4---------------4-------4-------6-7-6-7-6-7-6-7-6\
H-5---------------4---------------5-------6-------8-9-8-9-8-9-8-9-8\
G-6---------------4---------------6-------4-------6-7-6-7-6-7-6-7-6\
D-6---------------6---------------6-------6-------8-9-8-9-8-9-8-9-8\
A-4---------------6---------------4-------5-------------------------
E-----------------4-------------------------------------------------


intro

e-------------------------------------------------------------------
H-------------12-14-14(16)---------14p12-14----12-14-12~----14.-----
G-------11h13-------------------------------13----------------------
D-11h13-------------------------------------------------------------
A-------------------------------------------------------------------
E-------------------------------------------------------------------


e-------------------------------------------------------------------
H-14(16)-14-12----12~-----------14(16)-14-12----12~-----------------
G--------------13------13p11-----------------13------13p11----------
D----------------------------13----------------------------13-------
A-------------------------------------------------------------------
E-------------------------------------------------------------------


e-------------------------------------------------------------------
H-------------------------------------------------------------------
G-------------------------------------------------------------------
D-13\11p9-11----9-11-9~---------------------------------------------
A------------11----------11\----------------------------------------
E-------------------------------------------------------------------



e-11h12.--12.--12p11------------------------------------------------
H--------------------14p12-14(16).-----------14--p12----------------
G----------------------------------------------------13~------------
D-------------------------------------------------------------------
A-------------------------------------------------------------------
E-------------------------------------------------------------------


e------------------------------------------14-----------------------
H-12h14---14---14---12h14---12---11---12--------12---11-------------
G---------------------------------------------------------13\-------
D-------------------------------------------------------------------
A-------------------------------------------------------------------
E-------------------------------------------------------------------


e-11h12---12---12---11(12)(11)--------------------------------------
H------------------------------14---12-14(16)---14(16)(14)-12~--\---
G-------------------------------------------------------------------
D-------------------------------------------------------------------
A-------------------------------------------------------------------
E-------------------------------------------------------------------


e-------------------------------------------------------------------
H-12h14---14---14---14-14p12-11~------------------------------------
G---------------------------------13\-------------------------------
D--------------------------------------------------------4h6--------
A-------------------------------------------------------------------
E------------------------------------------------------------4------


Szóló

e-19(21)---19(21)---19(21)---19(21)---19(21)(19)-16-16---19.--------
H-------------------------------------------------------------------
G-------------------------------------------------------------------
D-------------------------------------------------------------------
A-------------------------------------------------------------------
E-------------------------------------------------------------------


e---------------------11--------------------------------------------
H-14(16)(14)-12-12-14----12~--------------------12---14-------------
G-----------------------------13~-\-------/13-----------------------
D-------------------------------------------------------------------
A-------------------------------------------------------------------
E-------------------------------------------------------------------


e-------------------------------------------------------------------
H-14(16)(14)p12--14(16)(14)p12--14(16)(14)p12--14(16)-14.-12.-------
G-------------------------------------------------------------------
D-------------------------------------------------------------------
A-------------------------------------------------------------------
E-------------------------------------------------------------------


e-------------------------------------------------------------------
H-14(16)-14.-12.--14(16)-14.-12.--14(16)-14.-12.--14(16)-14.-12.----
G-------------------------------------------------------------------
D-------------------------------------------------------------------
A-------------------------------------------------------------------
E-------------------------------------------------------------------


e-------------------------------------------------------------------
H-14(16)-14.-12.--14(16)-14.-12.------------------------------------
G-------------------------------------------------------------------
D-------------------------------------------------------------------
A-------------------------------------------------------------------
E-------------------------------------------------------------------


e-21(23)------21(23)------21(23)---21(23)-21(23)--(21)-19-19-----21'
H-------------------------------------------------------------21----
G-------------------------------------------------------------------
D-------------------------------------------------------------------
A-------------------------------------------------------------------
E-------------------------------------------------------------------


Intro/Refr és Verse akkordok

C#m G#m Eb7 G#m

G#m B7 C#m Eb7 G#m  C#m G#m C#m D(szűk) Eb7 E7 Eb7 E7.....



20121108

HBB HOSSZULÁBÚ ASSZONY TAB (INTRO + SZÓLÓ)

Hobo Blues Band - Hosszúlábú Asszony intro és szóló tab az alábbi verzió alapján.


HOBO BLUES BAND HOSSZULÁBÚ ASSZONY TAB

Intro

e-------------------------------------------------------------------
H-------------------------------------------------------------------
G-------------------------------------------------------------------
D-2-2-2-2-2-2-2-2-2-2-2-2--2p0--------------------------------------
A------------------------------2-0h2--------------------------------
E------------------------------------3-0.---------------------------


e----4-----3-----2---0.---------------------------------------------
H-------------------------------------------------------------------
G-/4---4-3---3-2---2-1.---------------------------------------------
D-------------------------2-3--4------------------------------------
A-------------------------0-1--2------------------------------------
E-------------------------------------------------------------------



Szóló

e--------------------17(19)-17.--15-17-15~--------------------------
H-----17.--17~-----------------------------------/17-15~------------
G-/16---------------------------------------------------------------
D-------------------------------------------------------------------
A-------------------------------------------------------------------
E-------------------------------------------------------------------


e---------12-14(15).-14(15)(14)p12----12----------------------------
H-12h14----------------------------15----15(17)---------------------
G-------------------------------------------------------------------
D-------------------------------------------------------------------
A-------------------------------------------------------------------
E-------------------------------------------------------------------


e-15(17)---12---------------------------12--------------------------
H-------------15-12------------------12----15p14p12-----------------
G-------------------12'--------12h13----------------15p14p12-13~----
D------------------------14~----------------------------------------
A-------------------------------------------------------------------
E-------------------------------------------------------------------


e----14(15).-14(15)(14)p12----12----------15(17)--17(19)--15(17)-12.
H-12-----------------------15----15(17)-----------------------------
G-------------------------------------------------------------------
D-------------------------------------------------------------------
A-------------------------------------------------------------------
E-------------------------------------------------------------------


e----------12-------------------------------------------------------
H-------12----15p12-------------------------------------------------
G-12h13-------------15-14p12----14.---12----------------------------
D----------------------------14----------14-------------------------
A---------------------------------------------14~-\----------3---2--
E------------------------------------------------------------1---0--



BIKINI ADJ HELYET MAGAD MELLETT TAB (SZÓLÓ)


e-------------------------------------------------------------------
H-------------------------------------------------------------------
G-2-4-4/5~---5-4-2---/11~--------11-11-10~-------10(12)---10-9~-----
D-------------------------------------------------------------------
A-------------------------------------------------------------------
E-------------------------------------------------------------------


e---------------8-7-------------------------------------------------
H----------10-8-----8-----------------------------------------------
G------9-7------------7~---------/4---4-4---4/5---4-2---------------
D-10-7--------------------------------------------------------------
A-------------------------------------------------------------------
E-------------------------------------------------------------------


e-------------------------------------------------------------------
H-------------------------------------------------------------------
G-/9~-------7---5-5/7~----------7-7~----7h9-------------------------
D---------------------------------------------10-9-7~---------------
A-------------------------------------------------------------------
E-------------------------------------------------------------------


e-------------------------------------------------------------------
H-------------------------------------------------------------------
G-2-4-4/5~---5-4-2---/4---0---<5>---<12>---/4---4-4---4/5---4-2~----
D-------------------------------------------------------------------
A-------------------------------------------------------------------
E-------------------------------------------------------------------



20121107

OCHO MACHO JÓ NEKEM TAB

Egy akkordmenet megy végig, 1:15-nél van egy kis díszítés, ami okozhat némi fejtörést.


OCHO MACHO JÓ NEKEM TAB


e---------0---------------0---------------3---------------2---------
H-------0---0-----------1---1-----------0---0---0-------3---3-------
G-----0-------0-------0-------0-------0-------0-------2-------2-----
D---------------2---------------2-----------------0-------------0---
A-----------------3-------------------------------------------------
E-0-------------------------------3---------------------------------


e---------0---------------0---------------3---------------2---------
H-------0---0-----------1---1-----------0---0---0-------3---3-------
G-----0-------0-------0-------0-------0-------0-------2-------2-----
D---2-----------2---------------2-----------------0-------------0---
A-----------------3-------------------------------------------------
E-0-------------------------------3---------------------------------


  1:15-nél

e---------7----------------8h10p8-----------------------------------
H-------8---8----------8----------8h10p8\---------------------------
G-----9-------9----------9------------------------------------------
D---9-------------10------------------------------------------------
A-7-----------------------------------------------------------------
E-------------------------------------------------------------------


e---------3h5p3------------------10h12p10---------------------------
H-----3--------------------10---------------------------------------
G-------4---------------------11------------------------------------
D-5-------------5/---12-------------------12\-----------------------
A-------------------------------------------------------------------
E-------------------------------------------------------------------


e---------7----------------8h10p8-----------------------------------
H-------8---8----------8----------8h10p8\---------------------------
G-----9-------9----------9------------------------------------------
D---9-------------10------------------------------------------------
A-7-----------------------------------------------------------------
E-------------------------------------------------------------------


e---------3h5p3------------------10h12p10---------------------------
H-----3--------------------10---------------------------------------
G-------4---------------------11------------------------------------
D-5-------------5/---12-------------------12\-----------------------
A-------------------------------------------------------------------
E-------------------------------------------------------------------



20121106

BIKINI KÖZELI HELYEKEN TAB (SZÓLÓ)



BIKINI KÖZELI HELYEKEN SZÓLÓ TAB

Akusztikus gitár

e-------------------------------------------------------------------
H-----------------------------0-------------------------------------
G------------0------------0-2-----2---0-----------------------------
D-2------4-------4----------------------4-2-------------------------
A-------------------------------------------------------------------
E-------------------------------------------------------------------


e-------------------------------------------------------------------
H-------------0-------------------0---1-----------------------------
G-------2-----------2h4p2-0---2---------2-4~------------------------
D-2-4-5---5---------------------------------------------------------
A-------------------------------------------------------------------
E-------------------------------------------------------------------


Szólógitár

e-12---15---17---17(19)\-/(19)---17(19)---(19)-(19)\(17)p15-17~-----
H-------------------------------------------------------------------
G-------------------------------------------------------------------
D-------------------------------------------------------------------
A-------------------------------------------------------------------
E-------------------------------------------------------------------


e-22(24)\-/(24)---22(24)---22---19h22-19----------------------------
H-------------------------------------------------------------------
G-------------------------------------------------------------------
D-------------------------------------------------------------------
A-------------------------------------------------------------------
E-------------------------------------------------------------------


e-------5--------------7-8------------------------------------------
H-5-7-8---8~---/8---10-----10~---8(10)---8-7h8p7--------------------
G-----------------------------------------------8---8/10~-----------
D-------------------------------------------------------------------
A-------------------------------------------------------------------
E-------------------------------------------------------------------



EDDA A KÖR TAB (SZÓLÓ)



e-15(17)-15(17)\(15)/(17)\(15)/(17)~--------------------------------
H-------------------------------------------------------------------
G-------------------------------------------------------------------
D-------------------------------------------------------------------
A-------------------------------------------------------------------
E-------------------------------------------------------------------


e-15(17)-15-13--12-13----12-----------------------------------------
H---------------------15-----13-15-12-13p12--12~~-------------------
G------------------------------------------14-----------------------
D-------------------------------------------------------------------
A-------------------------------------------------------------------
E-------------------------------------------------------------------


e-------------------------------------------------------------------
H-------------------------------------------------------------------
G-5-7-5-7-7(9)-7-5-4-----------------------------7(9)-7-//-(9)~~~---
D-------------------5~~-------------------5~------------------------
A-----------------------------3---3-7--3-5--------------------------
E-------------------------3-5---5-----------------------------------
  x x x x                 x x x x   x  x


e-------------------------------------------------------------------
H-----8------------------------8-10p8--8~--5------------------------
G-7(9)--7(9)\(7)-5-4-5-4-------------9-------7-7p5--5---5-----------
D-----------------------5~~-----------------------7---7-------------
A-------------------------------------------------------------------
E-------------------------------------------------------------------


e-------------------------------------------------------------------
H-------------------------------------------------------------------
G-7(9)-7-5-4-5-4----------------------------------------------------
D---------------5~~--------------------5~---------------------------
A--------------------------3-3/5---5--5-----------------------------
E----------------------3-5-------5--8-------------------------------
                       x x       x  x  

e-------------------------------------------------------------------
H----------------------------13(15)-13-12----12---------------------
G-7(9)-7-5-4-5-4-----------12-------------14----12-14~~-------------
D---------------5~~-------------------------------------------------
A-------------------------------------------------------------------
E-------------------------------------------------------------------
                           x

e--------------12-13----12------------------------------------------
H-12--12-13-15-------15----13-15-12-13p12--12~----8-10p8---8--------
G----------------------------------------14-------------9----9-7-5~~
D-------------------------------------------------------------------
A-------------------------------------------------------------------
E-------------------------------------------------------------------


e-------------------------------------------------------------------
H-----8---------------------------------------------10~~--------\---
G-7(9)--7(9)\(7)-5-4--5-4-------------------------------------------
D------------------------5~~-----------------5~---------------------
A-----------------------------------3-5-7-3-5-----------------------
E-------------------------------3-5---------------------------------
                                    x     x



HOOLIGANS MENJ TOVÁBB TAB



verse

  Em      G       Em      G   D    Em      G       Em      G   D   

e-3-------3-------3-------3---2----3-------3-------3-------3---2----
H-0-------0-------0-------0---3----0-------0-------0-------0---3----
G-0-------0-------0-------0---2----0-------0-------0-------0---2----
D-2-------0-------2-------0---0----2-------0-------2-------0---0----
A-2-------2-------2-------2---0----2-------2-------2-------2---0----
E-0-------3-------0-------3--------0-------3-------0-------3--------


Bridge

  C       Em      C       Em      C       Em      A       D7

e-3-------3-------3-------3-------3-------3-------0-------2---------
H-1-------0-------1-------0-------1-------0-------2-------1---------
G-0-------0-------0-------0-------0-------0-------2-------2---------
D-2-------2-------2-------2-------2-------2-------2-------0---------
A-3-------2-------3-------2-------3-------2-------0-------0---------
E---------0---------------0---------------0-------------------------


Refr

  G   Hm  C   D   G   Hm  C   D   G   H   C   D   G   Hm  C   D  

e-3---2---0---2---3---2---0---2---3---2---0---2---3---2---0---2-----
H-0---3---1---3---0---3---1---3---0---4---1---3---0---3---1---3-----
G-0---4---0---2---0---4---0---2---0---4---0---2---0---4---0---2-----
D-0---4---2---0---0---4---2---0---0---4---2---0---0---4---2---0-----
A-2---2---3---0---2---2---3---0---2---2---3---0---2---2---3---0-----
E-3---------------3---------------3---------------3-----------------


Szóló

e-------------------------------------------------------------------
H--------------------------------------15(17)------15~--------------
G-/12---12---12-12-11.--12.-12h14-----------------------------------
D-------------------------------------------------------------------
A-------------------------------------------------------------------
E-------------------------------------------------------------------


e----15---15--15--15--15--15.--17(19)-------------------------------
H-/15--15---15--15--15--15----------------15(17)--15(17).--15-------
G-------------------------------------------------------------------
D-------------------------------------------------------------------
A-------------------------------------------------------------------
E-------------------------------------------------------------------


e------------------11--------11-11-11h12----------------------------
H-------------12----------------------------------------------------
G-/12p11-12---------------------------------------------------------
D-------------------------------------------------------------------
A-------------------------------------------------------------------
E-------------------------------------------------------------------


e-------------------------------------------------------------------
H-/15------15-------------------------------------------------------
G-/14(16)--14(16)--14(16)(14)-12----------------12-12---------------
D----------------------------------------12h14----------------------
A-------------------------------------------------------------------
E-------------------------------------------------------------------


e--------------12--------12---------------------15------------------
H-----------------------------------------------15-15---------------
G-12-12-14(16)----14(16)----14(16)-------14(16)-------(16)(14)--12--
D-------------------------------------------------------------------
A-------------------------------------------------------------------
E-------------------------------------------------------------------