A következő címkéjű bejegyzések mutatása: tutorial. Összes bejegyzés megjelenítése
A következő címkéjű bejegyzések mutatása: tutorial. Összes bejegyzés megjelenítése

20130331

BYEALEX KEDVESEM TAB

Ez a dal képviselte Magyarországot a 2013-as Eurovision Song Contest eseményen.
A tab és a videó a stúdió verzió alapján készült.


BYEALEX KEDVESEM TAB

Intro

e-----------------------------------------------------------------------
B-----------------------------------------------------------------------
G-----------------------------------------------------------------------
D----5-----5-----2-----2----------   4x   ------------------------------
A-3-----3-----3-----3---------------------------------------------------
E-----------------------------------------------------------------------

Verse

e-----------------------------------------------------------------------
B-----------------------------------------------------------------------
G-----------------------------------------------------------------------
D----5-----5-----2-----2-----5-----5-----2-----2------------------------
A-3-----3-----3-----3-----3-----3-----3-----3---------------------------
E-----------------------------------------------------------------------


e-----------------------------------------------------------------------
B-----------------------------------------------------------------------
G-----------------------------------------------------------------------
D----5-----5-----2-----2-----5-----5-----2------------------------------
A-3-----3-----3-----3-----3-----3-----3-----3--2------------------------
E-----------------------------------------------------------------------


e-----------------------------------------------------------------------
B-----------------------------------------------------------------------
G-----------------------------------------------------------------------
D----5-----5-----2-----2-----5-----5-----2------------------------------
A-0-----0-----0-----0-----0-----0-----0-----0--2------------------------
E-----------------------------------------------------------------------


e-----------------------------------------------------------------------
B-----------------------------------------------------------------------
G-----------------------------------------------------------------------
D----5-----5-----2-----2-----5-----5-----2-----2------------------------
A-3-----3-----3-----3-----3-----3-----3-----3---------------------------
E-----------------------------------------------------------------------

Refr

e-----------------------------------------------------------------------
B-----------------------------------------------------------------------
G-----------------------------------------------------------------------
D----5-----5-----2-----2-----5-----5-----2------------------------------
A-3-----3-----3-----3-----3-----3-----3-----3--2------------------------
E-----------------------------------------------------------------------


e-----------------------------------------------------------------------
B-----------------------------------------------------------------------
G----2-----2-----------------2-----2------------------------------------
D----------------2-----2-----------------2------------------------------
A-0-----0-----0-----0-----0-----0-----0-----0---------------------------
E----------------------------------------------3------------------------


e-----------------------------------------------------------------------
B-----------------------------------------------------------------------
G----2-----2-----------------2-----2-----0------------------------------
D----------------2-----2------------------------------------------------
A-------------------------------------------0--2------------------------
E-1-----1-----1-----1-----1-----1-----1---------------------------------


e-----------------------------------------------------------------------
B-----------------------------------------------------------------------
G-----------------------------------------------------------------------
D----5-----5-----2-----2-----5-----5-----2-----2------------------------
A-3-----3-----3-----3-----3-----3-----3-----3---------------------------
E-----------------------------------------------------------------------