A következő címkéjű bejegyzések mutatása: vato loco. Összes bejegyzés megjelenítése
A következő címkéjű bejegyzések mutatása: vato loco. Összes bejegyzés megjelenítése

20121115

GANXSTA ZOLEE ÉS A KARTEL VATO LOCO TAB (INTRO)



e-------------------------------------------------------------------
H-------------------------------------------------------------------
G-------------------2.----------------------------------------------
D-2-2-2-2.--4.--5.------5-4---2---0-0-0-0.--2.--4.--5.--4-2---0-----
A-------------------------------------------------------------------
E-------------------------------------------------------------------


e-------------------------------------------0-0-0-0.----------------
H-------------------------------------------0-0-0-0.----------------
G-------------------------------------------2-2-2-2.----------------
D-----------0.--2.--4.--2-0-0---------------1-1-1-1.----1h2.--4.----
A-3-3-3-3.--------------------3---2---------------------------------
E-------------------------------------------------------------------