20150512

SZEKERES ADRIENN OLYAN, MINT TE TAB (MÓKOS JÁNOS GUITAR COVER)

Mókos János instrumentális videója Szekeres Adrienn - Olyan, mint Te című dala alapján.


SZEKERES ADRIENN OLYAN, MINT TE INSTRUMENTÁLIS TAB

Part 1

e-----------------------------------------------------------------------
B----------------------10.----------------------------------------------
G-------------9.--10--------12~----------10.--9~------------9-----------
D--------12---------------------------------------12.--11-----12~--\----
A---12------------------------------------------------------------------
E-----------------------------------------------------------------------


e-----------------------------------------------------------------------
B-----------------------10.--11~-------------------------11-----10~-----
G--------------9.--10-----------------------------------------12--------
D---------12------------------------------12.--10---10.-----------------
A---/12-----------------------------------------------------------------
E-----------------------------------------------------------------------


e-----------------------------------------------------------------------
B-----10---10.--10--h11p10----------------------------------------------
G------------------------------12~--------------------------------------
D---10------------------------------------------------------------------
A-----------------------------------------------------------------------
E-----------------------------------------------------------------------

20141101

KESH MIZU INTRO TAB (MR2 AKUSZTIK)

Remek akusztikus gitár intro 0:00 - 0:24 között. "Elkövető": Öllős Dávid.


KESH MIZU INTRO TAB


e-----------------------------------------------------------------------
B-------6---------------8-------7-------6-----6-----5-------------------
G-----6-----6---------7-------7-------6-------6-----5-------------------
D---5---------------8-------6-------5---------5-----3-------------------
A-6---------------7-----------------------6-----5-----------------------
E-------------------------6-------5-------------------------------------


e---3-----3-------------------------------------------------------------
B-----5-----5-----------------------------------------------------------
G-------------5---------------------------------------------------------
D-----------------------------------------------------------------------
A-5-----5---------------------------------------------------------------
E-----------------------------------------------------------------------


e-----------------------------------------------------------------------
B-----5---3h5.--------5---3h5.--------6---5h6.----8---6---5---6---------
G---------------------------------------------------------5---6---------
D-----3---------------5---------------7-----------7---7-----------------
A-5-----5-----x-3-------3-----------------------------------------------
E-----------------------------x-6-------6-----x-6-6---6---5---5---------


e-----------------------------------------------------------------------
B-----5---3h5.--------5---3h5.--------6---5h6.----8-8-6-6-5---6---------
G---------------------------------------------------------5---6---------
D-----3---------------5---------------7-----------7-7-7-7---------------
A-5-----5-----x-3-------3-----------------------------------------------
E-----------------------------x-6-------6-----x-6-6-6-6-6-5---5---------